busca

21 Days

Blink-182

Tom: D
Intro| Clean / slide

e|---------------------------------------------------------|
B|---------------------------------------------------------|
G|-7---11---7--7----11--11-----7---11----9---9--7--7-------|
D|---------------------------------------------------------|  x4            
A|---------------------------------------------------------|
E|---------------------------------------------------------| 

Intro 2| distortion / slide x2
1|---------------------------------------------------------------------
2|---------------------------------------------------------------------
3|-7-7-7-7--11-11-11----7-7-7---11-11----7-7-7-7---11-11-11--9-9-9--7-7
4|--------------------------------------------------------------------- 
5|-5-5-5-5---9--9--9----5-5-5---9---9----5-5-5-5---9--9--9---7-7-7--5-5
6|---------------------------------------------------------------------

VERSE|
D                                A
My mind wanders as I,m trying not to fall in love with you
G                                 F#
'Cause everytime I wake I ponder on my mistakes of what I said
D                                   A
It is always my esteem that I sure lose
                              G                        F#
playing those stupid games as I always end up chasing you

Intro 2| distortion / slide

e|---------------------------------------------------------------------
B|---------------------------------------------------------------------
G|-7-7-7-7--11-11-11----7-7-7---11-11----7-7-7-7---11-11-11--9-9-9--7-7
D|---------------------------------------------------------------------
A|-5-5-5-5---9--9--9----5-5-5---9---9----5-5-5-5---9--9--9---7-7-7--5-5
E|---------------------------------------------------------------------

Chorus
A                     G
I can't help myself anymore
A                                                   G
rehearsing my thoughts as I,m to scared to come to your door
A                                 G
I pushed it all aside just stand next to you
A                                         G
Now you won't talk to me for something I didn't do

It's not going to work



And I'm trying not to think of you

I'm all confused as I think of the things that I should do

I'm all shook up as I get all nervous inside

My emotions are something that I will always hide

Ending 1|
1|-----------------------------------------------------------|
2|-----------------------------------------------------------|
3|--7--9--11--12--11--9-----7--9--11--9--7-7-----------------|
4|-----------------------------------------------------------|  x2
5|-----------------------------------------------------------|
6|-----------------------------------------------------------|

Ending 2|
1|-----------------------------------------------------------|
2|-----------------------------------------------------------|
3|--7-7-7-7--9-9-9--11-11--12-12---11-11--9-9----------------|
4|-----------------------------------------------------------|
5|--5-5-5-5--7-7-7---9--9--10-10---9--9---7-7----------------|
6|-----------------------------------------------------------|

1|-----------------------------------------------------------|
2|-----------------------------------------------------------|
3|--7-7-7-7--9-9-9--11-11---9-9----7--7----------------------|
4|-----------------------------------------------------------|
5|--5-5-5-5--7-7-7---9--9---7-7--- 5--5 ---------------------|
6|-----------------------------------------------------------|

Clipes