busca

A New Hope Intro

blink-182

Tom: G
------------------------------------------------------------                    

Absolutely nobody else has done guitar tab for this song, so I thought I'd give it a go. 
This is my first tab, but I'm pretty sure its right. I'm only thirteen and I've been 
playing for about half a year, so please don't pummel me with abuse if you think its 
totally screwed up. 

By: chrisk182

e|---------------------------------------------------------|
B|--8-8-8-8-8---8-8-8-8-8---8-8-8-8-8---7-7-7-7-7----------|
G|--0-0-0-0-0---0-0-0-0-0---0-0-0-0-0---0-0-0-0-0----------|
D|---------------------------------------------------------|
A|---------------------------------------------------------|
E|---------------------------------------------------------|

e|---------------------------------------------------------|
B|--8-8-8-8-8---8-8-8-8-8---8-8-8-8-8---7-7-7-7-7----------|
G|--5-5-5-5-5---5-5-5-5-5---7-7-7-7-7---7-7-7-7-7----------|
D|---------------------------------------------------------|
A|---------------------------------------------------------|
E|---------------------------------------------------------|

  x2

Well, there you go. I know it's only the intro, but hopefully I'll have the rest of the song sorted soon.

Clipes