busca

A New Hope

blink-182

Tom: G
Intro:

    Guitarra 01:

E|---------------------------------------------------------------------------------------------------|
B|--8--8--8-----8--8--8-----8--8--8------8--8--8-----8--8--8------8--8--8-----7--7--7------7--7--7---|
G|--0--0--0-----0--0--0-----0--0--0------0--0--0-----0--0--0------0--0--0-----0--0--0------0--0--0---|
D|--5--5--5-----5--5--5-----5--5--5------5--5--5-----5--5--5------5--5--5-----5--5--5------5--5--5---|
A|---------------------------------------------------------------------------------------------------|
E|---------------------------------------------------------------------------------------------------|
                                                                                                          4X
E|---------------------------------------------------------------------------------------------------|
B|--8--8--8-----8--8--8-----8--8--8------8--8--8-----8--8--8------8--8--8-----7--7--7------7--7--7---|
G|--5--5--5-----5--5--5-----5--5--5------5--5--5-----7--7--7------7--7--7-----7--7--7------7--7--7---|
D|---------------------------------------------------------------------------------------------------|
A|---------------------------------------------------------------------------------------------------|
E|---------------------------------------------------------------------------------------------------|

    Guitarra 02: (0'19s)

         G5         A5              C5              D5
E|--------------------------------------------------------------|
B|--------------------------------------------------------------|
G|---------------------------------5-5-5-5-5-5-----7-7-7-7-7-7--|
D|--5-5-5-5-5-5----7-7-7-7-7-7-----5-5-5-5-5-5-----7-7-7-7-7-7--|    2X
A|--5-5-5-5-5-5----7-7-7-7-7-7-----3-3-3-3-3-3-----5-5-5-5-5-5--|
E|--3-3-3-3-3-3----5-5-5-5-5-5----------------------------------|



Verso: (0'38s) 

 G5                C5       D5

E|----------------------------------|
B|----------------------------------|
G|-----------------5-5-5----7-7-7---|
D|--5-5-5-5-5------5-5-5----7-7-7---|    2X
A|--5-5-5-5-5------3-3-3----5-5-5---|
E|--3-3-3-3-3-----------------------|
 
     E5           C5      D5
E|------------------------------------------------------------------------------|
B|--------------------------------8--8--8---8--8--8------7--7--7---7--7--7------|
G|---------------5-5-5---7-7-7----0--0--0---0--0--0------0--0--0---0--0--0------|
D|--2-2-2-2-2----5-5-5---7-7-7----5--5--5---5--5--5------5--5--5---5--5--5------|
A|--2-2-2-2-2----3-3-3---5-5-5--------------------------------------------------|
E|--0-0-0-0-0-------------------------------------------------------------------|

 G5                C5       D5

E|----------------------------------|
B|----------------------------------|
G|-----------------5-5-5----7-7-7---|
D|--5-5-5-5-5------5-5-5----7-7-7---|    2X
A|--5-5-5-5-5------3-3-3----5-5-5---|
E|--3-3-3-3-3-----------------------|
 
     E5           C5      D5
E|------------------------------------------------------------|
B|---------------------------------8--8--8--8--8--8-----------|
G|---------------5-5-5---7-7-7-----0--0--0--0--0--0-----------|
D|--2-2-2-2-2----5-5-5---7-7-7-----5--5--5--5--5--5-----------|
A|--2-2-2-2-2----3-3-3---5-5-5--------------------------------|
E|--0-0-0-0-0-------------------------------------------------|



Refrão: (0'56s)

         A5           C5           |-PM--|     |-PM--|  |-PM--|   |-PM--| |-PM--|  |-PM--|
E|-------------------------------------------------------------------------------------------------|
B|-------------------------------------------------------------------------------------------------|
G|--2-2-2-2-2------5-5-5-5-5-----------------------------------------------------------------------|
D|--2-2-2-2-2------5-5-5-5-5-----------------------------------------------------------------------|
A|--0-0-0-0-0------3-3-3-3-3------5-5-5-5-5-------5-5-5-5-5---------5-5-5-5-5-------5-5-5-5-5------|
E|--------------------------------3-3-3-3-3---5---3-3-3-3-3---2-----3-3-3-3-3---5---3-3-3-3-3---2--|
 
        A5         C5           D5
E|-----------------------------------------|
B|-----------------------------------------|
G|--2-2-2-2-2-----5-5-5-5-5-----7-7-7-7-7--|
D|--2-2-2-2-2-----5-5-5-5-5-----7-7-7-7-7--|
A|--0-0-0-0-0-----3-3-3-3-3-----5-5-5-5-5--|
E|-----------------------------------------|


Intro: (1'11s)

E|---------------------------------------------------------------------------------------------------|
B|--8--8--8-----8--8--8-----8--8--8------8--8--8-----8--8--8------8--8--8-----7--7--7------7--7--7---|
G|--0--0--0-----0--0--0-----0--0--0------0--0--0-----0--0--0------0--0--0-----0--0--0------0--0--0---|
D|--5--5--5-----5--5--5-----5--5--5------5--5--5-----5--5--5------5--5--5-----5--5--5------5--5--5---|
A|---------------------------------------------------------------------------------------------------|
E|---------------------------------------------------------------------------------------------------|
                                                                                                          2X
E|---------------------------------------------------------------------------------------------------|
B|--8--8--8-----8--8--8-----8--8--8------8--8--8-----8--8--8------8--8--8-----7--7--7------7--7--7---|
G|--5--5--5-----5--5--5-----5--5--5------5--5--5-----7--7--7------7--7--7-----7--7--7------7--7--7---|
D|---------------------------------------------------------------------------------------------------|
A|---------------------------------------------------------------------------------------------------|
E|---------------------------------------------------------------------------------------------------|



Verso: (1'31s) 

 G5                C5       D5

E|----------------------------------|
B|----------------------------------|
G|-----------------5-5-5----7-7-7---|
D|--5-5-5-5-5------5-5-5----7-7-7---|    2X
A|--5-5-5-5-5------3-3-3----5-5-5---|
E|--3-3-3-3-3-----------------------|
 
     E5           C5      D5
E|------------------------------------------------------------------------------|
B|--------------------------------8--8--8---8--8--8------7--7--7---7--7--7------|
G|---------------5-5-5---7-7-7----0--0--0---0--0--0------0--0--0---0--0--0------|
D|--2-2-2-2-2----5-5-5---7-7-7----5--5--5---5--5--5------5--5--5---5--5--5------|
A|--2-2-2-2-2----3-3-3---5-5-5--------------------------------------------------|
E|--0-0-0-0-0-------------------------------------------------------------------|

 G5                C5       D5

E|----------------------------------|
B|----------------------------------|
G|-----------------5-5-5----7-7-7---|
D|--5-5-5-5-5------5-5-5----7-7-7---|    2X
A|--5-5-5-5-5------3-3-3----5-5-5---|
E|--3-3-3-3-3-----------------------|
 
     E5           C5      D5
E|------------------------------------------------------------|
B|------------------------------------------------------------|
G|---------------5-5-5---7-7-7-----8--8--8---8--8--8----------|
D|--2-2-2-2-2----5-5-5---7-7-7-----0--0--0---0--0--0----------|
A|--2-2-2-2-2----3-3-3---5-5-5-----5--5--5---5--5--5----------|
E|--0-0-0-0-0-------------------------------------------------|



Refrão: (1'49s)

         A5           C5           |-PM--|     |-PM--|  |-PM--|   |-PM--| |-PM--|  |-PM--|
E|-------------------------------------------------------------------------------------------------|
B|-------------------------------------------------------------------------------------------------|
G|--2-2-2-2-2------5-5-5-5-5-----------------------------------------------------------------------|
D|--2-2-2-2-2------5-5-5-5-5-----------------------------------------------------------------------|
A|--0-0-0-0-0------3-3-3-3-3------5-5-5-5-5-------5-5-5-5-5---------5-5-5-5-5-------5-5-5-5-5------|
E|--------------------------------3-3-3-3-3---5---3-3-3-3-3---2-----3-3-3-3-3---5---3-3-3-3-3---2--|
 
        A5         C5           D5            G5
E|----------------------------------------------------------|
B|----------------------------------------------------------|
G|--2-2-2-2-2-----5-5-5-5-5-----7-7-7-7-7-------------------|
D|--2-2-2-2-2-----5-5-5-5-5-----7-7-7-7-7-----5~~~~~~~~-----|
A|--0-0-0-0-0-----3-3-3-3-3-----5-5-5-5-5-----5~~~~~~~~-----|
E|--------------------------------------------3~~~~~~~~-----|


Interlúdio: (2'29s)       
  
   |-PM--|  |-PM--|
E|----------------------|
B|----------------------|
G|----------------------|
D|-5-5--5-5--5-5--5-5---|
A|-5-5--5-5--5-5--5-5---|
E|-3-3--3-3--3-3--3-3---|

E|---------------------------------------------------|----------------------------------------------|
B|---------------------------------------------------|----------------------------------------------|
G|------4h7--------4h7--------4h7--------4-----------|------5p4--------5p4--------5p4--------4------|    4X
D|--5-5--------5-5--------5-5--------5-5-------------|--5-5--------5-5--------5-5--------5-5--------|
A|---------------------------------------------------|----------------------------------------------|
E|---------------------------------------------------|----------------------------------------------|

 
 Guitarra 01: (Solo) (2'47s)

E|-----------------------------------|
B|------------------------5----------|
G|--4~~~~~~7--5-----4/5-------7------|
D|-----------------------------------|    4X
A|-----------------------------------|
E|-----------------------------------|

 Guitarra 02: (Base) (2'47s)

    G5        A5              C5         E5   D5             G5        A5              C5         E5   D5
E|--------------------------------------------------------|--------------------------------------------------------|
B|--------------------------------------------------------|--------------------------------------------------------|
G|---------------------------5-5-5-5----9-9--7-7----------|---------------------------5-5-5-5----9-9--7-7----------|
D|-5-5-5-5---7-7-7-7---------5-5-5-5----9-9--7-7----------|-5-5-5-5---7-7-7-7---------5-5-5-5----9-9--7-7----------|
A|-5-5-5-5---7-7-7-7---------3-3-3-3----7-7--5-5----------|-5-5-5-5---7-7-7-7---------3-3-3-3----7-7--5-5----------|
E|-3-3-3-3---5-5-5-5--------------------------------------|-3-3-3-3---5-5-5-5--------------------------------------| 

    G5        A5              C5         E5   D5             G5        A5              C5        E5
E|--------------------------------------------------------|--------------------------------------------------------|
B|--------------------------------------------------------|--------------------------------------------------------|
G|---------------------------5-5-5-5----9-9--7-7----------|---------------------------5-5-5-5----9-----------------|
D|-5-5-5-5---7-7-7-7---------5-5-5-5----9-9--7-7----------|-5-5-5-5---7-7-7-7---------5-5-5-5----9-----------------|
A|-5-5-5-5---7-7-7-7---------3-3-3-3----7-7--5-5----------|-5-5-5-5---7-7-7-7---------3-3-3-3----7-----------------|
E|-3-3-3-3---5-5-5-5--------------------------------------|-3-3-3-3---5-5-5-5--------------------------------------|


  (3'06s)

         A5           C5           |-PM--|     |-PM--|  |-PM--|   |-PM--| |-PM--|  |-PM--|
E|-------------------------------------------------------------------------------------------------|
B|-------------------------------------------------------------------------------------------------|
G|--2-2-2-2-2------5-5-5-5-5-----------------------------------------------------------------------|
D|--2-2-2-2-2------5-5-5-5-5-----------------------------------------------------------------------|
A|--0-0-0-0-0------3-3-3-3-3------5-5-5-5-5-------5-5-5-5-5---------5-5-5-5-5-------5-5-5-5-5------|
E|--------------------------------3-3-3-3-3---5---3-3-3-3-3---2-----3-3-3-3-3---5---3-3-3-3-3---2--|

         A5           C5           |-PM--|     |-PM--|  |-PM--|   |-PM--| |-PM--|  |-PM--|
E|-------------------------------------------------------------------------------------------------|
B|-------------------------------------------------------------------------------------------------|
G|--2-2-2-2-2------5-5-5-5-5-----------------------------------------------------------------------|
D|--2-2-2-2-2------5-5-5-5-5-----------------------------------------------------------------------|
A|--0-0-0-0-0------3-3-3-3-3------5-5-5-5-5-------5-5-5-5-5---------5-5-5-5-5-------5-5-5-5-5------|
E|--------------------------------3-3-3-3-3---5---3-3-3-3-3---2-----3-3-3-3-3---5---3-3-3-3-3---2--|

Refrão: (3'24s)

         A5           C5           G5
E|----------------------------------------------------------------------------|
B|----------------------------------------------------------------------------|
G|--2-2-2-2-2------5-5-5-5-5--------------------------------------------------|
D|--2-2-2-2-2------5-5-5-5-5--------------------------------------------------|
A|--0-0-0-0-0------3-3-3-3-3------5-5-5-5-5-5-5-5-5-5--5-5-5-5-5-5-5-5-5-5----|
E|--------------------------------3-3-3-3-3-3-3-3-3-3--3-3-3-3-3-3-3-3-3-3----|
 
        A5        C5      D5      G5
E|---------------------------------------------------------------|
B|---------------------------------------------------------------|
G|--2-2-2-2-2-----5-------7--------------------------------------|
D|--2-2-2-2-2-----5-------7------5-------------------------------|
A|--0-0-0-0-0-----3-------5------5-------------------------------|
E|-------------------------------3-------------------------------|

Clipes