A New Hope

Blink-182

Principal
A5
12
X022XX
C5
134
X355XX
D5
134
X577XX
E5
12
022XXX
G5
134
355XXX
Tom: G
Intro:

#1t1##1t2#e|-333332222----------222---------------|
B|------3333-1111-3333333---------------|
G|--------------------------------------|
D|--------------------------------------|
A|--------------------------------------|(2x)
E|--------------------------------------|#/1t2##/1t1#

#2t1#Background chords
        G5           C5           D5
#2t2#e|-----------------------------------------|
B|-----------------------------------------|
G|---------------5-5-5-5-5-5--7-7-7-7-7-7--|
D|--5-5-5-5-5-5--5-5-5-5-5-5--7-7-7-7-7-7--|
A|--5-5-5-5-5-5--3-3-3-3-3-3--5-5-5-5-5-5--|
E|--3-3-3-3-3-3----------------------------|#/2t2##/2t1#

Verse:

#3t1#        G5           C5           D5
#3t2#e|-----------------------------------------|
B|-----------------------------------------|
G|---------------5-5-5-5-5-5--7-7-7-7-7-7--|
D|--5-5-5-5-5-5--5-5-5-5-5-5--7-7-7-7-7-7--|(2x)
A|--5-5-5-5-5-5--3-3-3-3-3-3--5-5-5-5-5-5--|
E|--3-3-3-3-3-3----------------------------|#/3t2##/3t1#

#4t1#        E5           C5           D5
#4t2#e|-----------------------------------------|
B|-----------------------------------------|
G|---------------5-5-5-5-5-5--7-7-7-7-7-7--|
D|--2-2-2-2-2-2--5-5-5-5-5-5--7-7-7-7-7-7--|
A|--2-2-2-2-2-2--3-3-3-3-3-3--5-5-5-5-5-5--|(1x)
E|--0-0-0-0-0-0----------------------------|#/4t2##/4t1#

#5t1##5t2#e|-33333333-22222222----|
B|----------------------|
G|----------------------|#/5t2##/5t1#
Repeat all that... The last bit before the chorus is:

#6t1##6t2#e|-33333333------------------|
B|---------------------------|
G|-----------|#/6t2##/6t1#

Chorus:

#7t1#        A5           C5        |-PM--|     |-PM--|
#7t2#e|-----------------------------------------------------|
B|-----------------------------------------------------|
G|--2-2-2-2-2-2--5-5-5-5-5-5---------------------------|
D|--2-2-2-2-2-2--5-5-5-5-5-5---------------------------|
A|--0-0-0-0-0-0--3-3-3-3-3-3---5-5-555--7--5-5-555-4---|(2x)
E|-----------------------------3-3-333--5--3-3-333-2---|#/7t2##/7t1#

#8t1#        A5           C5           D5
#8t2#e|-----------------------------------------|
B|-----------------------------------------|
G|--2-2-2-2-2-2--5-5-5-5-5-5--7-7-7-7-7-7--|
D|--2-2-2-2-2-2--5-5-5-5-5-5--7-7-7-7-7-7--|
A|--0-0-0-0-0-0--3-3-3-3-3-3--5-5-5-5-5-5--|
E|-----------------------------------------|#/8t2##/8t1#

Then:
Back to intro
Verse 2 same as Verse 1
Chorus

Interlude:
        
#9t1##9t2#e|------------------------------------|------------------------------------|
B|-----0h3------0h3------0h3------0---|-----1p0------1p0------1p0------0---|
G|-0-0------0-0------0-0------0-0-----|-0-0------0-0------0-0------0-0-----|
D|------------------------------------|------------------------------------|
A|------------------------------------|------------------------------------|
E|------------------------------------|------------------------------------|#/9t2##/9t1#

#10t1##10t2#e|------------------------------------|------------------------------------|
B|-----0h3------0h3------0h3------0---|-----1p0------1p0------0h1------0---|
G|-0-0------0-0------0-0------0-0-----|-0-0------0-0------0-0------0-0-----|
D|------------------------------------|------------------------------------|
A|------------------------------------|------------------------------------|(2x)
E|------------------------------------|------------------------------------|#/10t2##/10t1#

Then:

#11t1##11t2#e|-----------------------------------------|
B|-----------------------------------------|
G|------5/7-7-7--5-5/4/5/9-9--7-7----------|
D|-5-5--5/7-7-7--5-5/4/5/9-9--7-7----------|
A|-5-5--3/5-5-5--3-3/2/5/7-7--5-5----------|(2x)
E|-3-3-------------------------------------|#/11t2##/11t1#

Last Chorus:

Do the bit with palm muting 2 times
Then A5, C5, and G5
Back to A5, C5(once) and then D5(once), then G5 let ring.

Composição: blink-182Colaboração e revisão: