A New Hope

Blink-182

Principal
Tom: G
Hey, I'm 13 and I've been playing for like a year and this my ear-transcribtion of A NEW HOPE

#1t1#INTRO (you can figure the speed and stuff)background G,C,D
#1t2#e|--------------------------------------
B|--------------------------------------
G|-12------11-------------------11------
D|-X--x18--X--x6--10-----12-----12------
A|-10------10-----X--x6--X--x6--x---x6--
E|----------------8------10-----10------#/1t2##/1t1#

#2t1#Verse play three times and then play (on 3rd play E,C,D
#2t2#e|-------------|-------------------------------
B|-------------|-------------------------------
G|--------5-77-|--12-------11------------------
D|-555555-5-77-|--X--x6----X---x6--------------
A|-555555-3-55-|--10-------10------------------
E|-333333------|-------------------------------#/2t2##/2t1#

PLay Verse again

#3t1#Chorus 
#3t2#e|-----------------------------------------------------
B|-----------------------------------------------------
G|-222222--555555--------------------------------------
D|-222222--555555--------------------------------------
A|-000000--333333--------------------------------------
E|-----------------33333 -5--33333--2-33333-5-33333-2--
                  PM---------------------------------#/3t2##/3t1#
                   
#4t1##4t2#e|-------------------------------------
B|-------------------------------------
G|-222222--555555--777777--------------
D|-222222--555555--777777--------------
A|-000000--333333--555555--------------
E|-------------------------------------#/4t2##/4t1#


PLAY INTRO

PLAY VERSE

PLAY CHORUS

#5t1#INTERLUDE (background G,A,C,D) play 4 times
#5t2#e|----------------------------------------
B|------------3^0-----3^0-------3^0------0
G|--------0 0-----0 0------0 0-------0-0--
D|-55555----------------------------------
A|-55555----------------------------------
E|-33333----------------------------------  
  PM----#/5t2##/5t1#

#6t1##6t2#e|-----------------------------------------
B|------1^0 -------1^0-------1^0--------0--
G|-0 0 ------0 0 -------0 0 ------0 0------
D|-----------------------------------------
A|-----------------------------------------
E|-----------------------------------------#/6t2##/6t1#

#7t1#INTERLUDE pt.2
#7t2#e|-----------------------------------------------------
B|-----------------------------------------------------
G|------7-7-7--4-4--7-7-7-7-7-5-5-4-4-4-5-5-9-9-9-7-7-7
D|-5-5--X-X-x--X-X--X-X-X-X-X-x-X-X-X-X-X-X-X-X-X-X-X-X
A|-X-X--5-5-5--2-2--5-5-5-5-5-3-3-2-2-2-3-3-7-7-7-5-5-5
E|-3-3-------------------------------------------------#/7t2##/7t1#

#8t1##8t2#e|-----------------------------------
B|-----------------------------------
G|-55555-----------------------------
D|-XXXXX-----------------------------
A|-33333-----------------------------
E|-----------------------------------#/8t2##/8t1#

END ON PLAYING CHORUS THING
Composição: blink-182Colaboração e revisão: