Action Live

Blink-182

Tom: G
Tabbed by: Daniel Luengas
E-mail: *

live version...tom played it on TRL... I know the song it's called
feeling this but I couldn't post it so that's why  I posted it as action...enjoy...

#1t1#Intro:
#1t2#e|-------------------|
B|-------------------|
G|-11/9-0-9-\13-\9---|
D|-11/9-0-9-\13-\9---|
A|--9/7-0-7-\11-\7---|  X2
E|-------------------|#/1t2##/1t1#

#2t1#Verse:
#2t2#e|-----------------|
B|-----------------|
G|-11/9-0-9-\13-0--|
D|-11/9-0-9-\13-0--|
A|--9/7-0-7-\11-0--|  X8
E|-----------------|#/2t2##/2t1#

#3t1#Chorus:
#3t2#e|----------|
B|----------|
G|----------|
D|-7--------|
A|-7--------|  X1
E|-0--------|#/3t2##/3t1#

#4t1#Pre-Verse:
#4t2#e|---------------------------------|
B|---------------------------------|
G|-9-9-9-11-11-11-13-13-13-14-14-14|
D|-9-9-9-11-11-11-13-13-13-14-14-14|
A|-7-7-7--9--9--9-11-11-11-12-12-12|  X1
E|---------------------------------|#/4t2##/4t1#

#5t1#Intro:
#5t2#e|-----------------|
B|-----------------|
G|-11/9-0-9-\13-0--|
D|-11/9-0-9-\13-0--|
A|--9/7-0-7-\11-0--|  X2
E|-----------------|#/5t2##/5t1#

#6t1#Verse:
#6t2#e|-----------------|
B|-----------------|
G|-11/9-0-9-\13-0--|
D|-11/9-0-9-\13-0--|
A|--9/7-0-7-\11-0--|  X6
E|-----------------|#/6t2##/6t1#

#7t1#Chorus:
#7t2#e|----------|
B|----------|
G|----------|
D|-7--------|
A|-7--------|  X1
E|-0--------|#/7t2##/7t1#

#8t1#Bridge:
#8t2#e|-----------------------------|
B|-----------------------------|
G|-----------------------------|
D|--9-9-9-9-9-9-9-9-9-9-9-9-9--|
A|--9-9-9-9-9-9-9-9-9-9-9-9-9--|   
E|--7-7-7-7-7-7-7-7-7-7-7-7-7--|#/8t2##/8t1#
 Pm............................

#9t1#Outro
#9t2#e|-----------------------------|
B|-----------------------------|
G|-9-9-9-----------------------|
D|-9-9-9-9-9-9-11-11-11-7-7-7--|
A|-7-7-7-9-9-9-11-11-11-7-7-7--|   X8
E|-------7-7-7--9--9--9-5-5-5--|#/9t2##/9t1#


Ok... it's pretty easy, 
any comments e-mail me at:   *
Composição: Artie Kornfeld / Barker / Brian Wilson / Feldman / Feldmann / Hodges / Hoppus / Iil Aaron / J. P. Clark / Jan Berry / John Feldmann / John Lennon / Johnson / JP Clark / JRM / Mark Hoppus / Matt Malpass / Matt Skiba / Matt Skibba / Mott The Hopple / NOFX / Ono Yoko / Roger Christian / Sam Hollander / Skiba / Smrdeath / Stump / T. Hales / Thabiso Nkhereanye / The Cure / Tim Pagnotta / Tom / Tom DeLonge / Travis BarkerColaboração e revisão: