Adams Song Live

Blink-182

Tom: G
Blink182, Adam's song(live version).
Tabbed by dave, *.
  
This is the version off The Mark tom & Travis show. Its played different live for some reason.
Intro
#1t1##1t2#e----------------------------------------------------I
b----------------------------------------------------I
g----------------------------------------------------I
d-----------------------1-------1-------1------1-----I
a-----6---------6---------2-------2-------2------2---I
E--4----7----4----7---2-------2-------0------0-------I#/1t2##/1t1#

#2t1##2t2#e----------------------------------------------------I
b----------------------------------------------------I
g----------------------------------------------------I
d-----1-------1--------------------------------------I
a-------2-------2---------repeatX4-------------------I
E--2--------0----------------------------------------I#/2t2##/2t1#

#3t1#Verse
#3t2#e----------------------------------------------------I
b----------------------------------------------------I
g----------------------------------------------------I
d-44444444-------------------------------------------I
a-22222222--22222222--66666666--22222222-------------I
E-----------00000000--44444444--00000000-------------I
----pm--------pm--------pm---------pm-----------------#/3t2##/3t1#

#4t1#Interlude
#4t2#e----------------------------------------------------I
b----------------------------------------------------I
g----------------------------------------------------I
d----4-2----4-2----6------6-------------------1---1--I
a--2------2------4---7--4---7----6------6------2---2-I
E------------------------------4---7--4---7--2---2---I#/4t2##/4t1#

#5t1#Chorus/Verse 2
#5t2#e----------------------------------------------------I
b----------------------------------------------------I
g----------------------------------------------------I
d-44444444--66666666---------------------------------I
a-22222222--44444444-66666666-22222222---------------I
E--------------------44444444-00000000---------------I#/5t2##/5t1#

that's about it. 

 
:: Ultimate Guitar Archive :: 
http://* 

Composição: Artie Kornfeld / Barker / Brian Wilson / Feldman / Feldmann / Hodges / Hoppus / Iil Aaron / J. P. Clark / Jan Berry / John Feldmann / John Lennon / Johnson / JP Clark / JRM / Mark Hoppus / Matt Malpass / Matt Skiba / Matt Skibba / Mott The Hopple / NOFX / Ono Yoko / Roger Christian / Sam Hollander / Skiba / Smrdeath / Stump / T. Hales / Thabiso Nkhereanye / The Cure / Tim Pagnotta / Tom / Tom DeLonge / Travis BarkerColaboração e revisão: