busca

Adam's Song

blink-182

Tom: G
Introdução:

E|----------------------------------------------------|
B|----------------------------------------------------|
G|----------------------------------------------------|
D|----4--0-------4--0-------4--0-------4--0-----------|
A|-2----------2----------0----------0-----------------|
E|----------------------------------------------------|

E|----------------------------------------------------|
B|----------------------------------------------------|
G|----------------------------------------------------|
D|----4--0-------4--0-------4--0-------4--0-----------|
A|----------------------------------------------------|
E|-3----------3----------0----------3-----------------|

E|----------------------------------------------------|
B|----------------------------------------------------|
G|----------------------------------------------------|
D|----4--0-------4--0-------4--0-------4--0-----------|
A|-2----------2----------0----------0-----------------|
E|----------------------------------------------------|

E|----------------------------------------------------|
B|----------------------------------------------------|
G|----------------------------------------------------|
D|----4--0-------4--0-------4--0-------4--0-----------|
A|----------------------------------------------------|
E|-3----------3----------0----------3-----------------|


Primeira Parte:

D5           G5               B5
   I never thought, I'd die alone
               G5                   D5
I laughed the loudest, who'd have known?
              G5               B5
I traced the cord back to the wall
                  G5                 D5
No wonder it was never plugged in at all
           G5             B5
I took my time, I hurried up
                G5                    D5
The choice was mine, I didn't think enough
            G5          B5
I'm too depressed to go on
           G5
You'll be sorry when I'm gone

Riff 1 - 2x:

E|----------------------------------------------------|
B|----------------------------------------------------|
G|-------0----------0----------0----------0-----------|
D|----7----------7----------9----------9--------------|
A|-5----------5----------7----------7-----------------|
E|----------------------------------------------------|

E|----------------------------------------------------|
B|----------------------------------------------------|
G|----------------------------------------------------|
D|----4--0-------4--0-------4--0-------4--0-----------|
A|-2----------2---------------------------------------|
E|-----------------------3----------3-----------------|


Primeiro Refrão:

(Guitarra 1)

E|----------------------------------------------------|
B|----------------------------------------------------|
G|-7-7-7-7-7-7-7-7-7-9-9-9-9-9-9-9-9-9----------------|
D|----------------------------------------------------|
A|-5-5-5-5-5-5-5-5-5-7-7-7-7-7-7-7-7-7----------------|
E|----------------------------------------------------|
   ↓ ↓ ↓ ↓ ↓ ↓ ↓ ↓ ↑ ↓ ↓ ↓ ↓ ↓ ↓ ↓ ↓ ↑

E|----------------------------------------------------|
B|----------------------------------------------------|
G|-11-11-11-11-11-11-11-11-11-------------------------|
D|----------------------------------------------------|
A|-9--9--9--9--9--9--9--9--9--------------------------|
E|----------------------------------------------------|
   ↓  ↓  ↓  ↓  ↓  ↓  ↓  ↓  ↑

E|----------------------------------------------------|
B|----------------------------------------------------|
G|-12-12-12-12-12-12-12-12-12-------------------------|
D|----------------------------------------------------|
A|-10-10-10-10-10-10-10-10-10-------------------------|
E|----------------------------------------------------|
   ↓  ↓  ↓  ↓  ↓  ↓  ↓  ↓  ↑

E|----------------------------------------------------|
B|----------------------------------------------------|
G|-7-7-7-7-7-7-7-7-7-9-9-9-9-9-9-9-9-9----------------|
D|----------------------------------------------------|
A|-5-5-5-5-5-5-5-5-5-7-7-7-7-7-7-7-7-7----------------|
E|----------------------------------------------------|
   ↓ ↓ ↓ ↓ ↓ ↓ ↓ ↓ ↑ ↓ ↓ ↓ ↓ ↓ ↓ ↓ ↓ ↑

E|----------------------------------------------------|
B|----------------------------------------------------|
G|-11-11-11-11-11-11-11-11-11-------------------------|
D|----------------------------------------------------|
A|-9--9--9--9--9--9--9--9--9--------------------------|
E|----------------------------------------------------|
   ↓  ↓  ↓  ↓  ↓  ↓  ↓  ↓  ↑

E|----------------------------------------------------|
B|----------------------------------------------------|
G|-12-12-12-12-12-12-12-12-12-------------------------|
D|----------------------------------------------------|
A|-10-10-10-10-10-10-10-10-10-------------------------|
E|----------------------------------------------------|
   ↓  ↓  ↓  ↓  ↓  ↓  ↓  ↓  ↑

(Guitarra 2)

E|----------------------------------------------------|
B|----------------------------------------------------|
G|-7-7-7-7-7-7-7-7-7-9-9-9-9-9-9-9-9-9----------------|
D|----------------------------------------------------|
A|-5-5-5-5-5-5-5-5-5-7-7-7-7-7-7-7-7-7----------------|
E|----------------------------------------------------|
   ↓ ↓ ↓ ↓ ↓ ↓ ↓ ↓ ↑ ↓ ↓ ↓ ↓ ↓ ↓ ↓ ↓ ↑

E|----------------------------------------------------|
B|----------------------------------------------------|
G|-11-11-11-11-11-11-11-11-11-------------------------|
D|----------------------------------------------------|
A|-9--9--9--9--9--9--9--9--9--------------------------|
E|----------------------------------------------------|
   ↓  ↓  ↓  ↓  ↓  ↓  ↓  ↓  ↑

E|----------------------------------------------------|
B|----------------------------------------------------|
G|-12-12-12-12-12-12-12-12-12-------------------------|
D|----------------------------------------------------|
A|-10-10-10-10-10-10-10-10-10-------------------------|
E|----------------------------------------------------|
   ↓  ↓  ↓  ↓  ↓  ↓  ↓  ↓  ↑

E|----------------------------------------------------|
B|----------------------------------------------------|
G|-11-11-11-11-11-11-11-11-11-------------------------|
D|----------------------------------------------------|
A|-9--9--9--9--9--9--9--9--9--------------------------|
E|----------------------------------------------------|
   ↓  ↓  ↓  ↓  ↓  ↓  ↓  ↓  ↑

E|----------------------------------------------------|
B|----------------------------------------------------|
G|-12-12-12-12-12-12-12-12-12-------------------------|
D|----------------------------------------------------|
A|-10-10-10-10-10-10-10-10-10-------------------------|
E|----------------------------------------------------|
   ↓  ↓  ↓  ↓  ↓  ↓  ↓  ↓  ↑

E|----------------------------------------------------|
B|----------------------------------------------------|
G|-11-11-11-11-11-11-11-11-11-------------------------|
D|----------------------------------------------------|
A|-9--9--9--9--9--9--9--9--9--------------------------|
E|----------------------------------------------------|
   ↓  ↓  ↓  ↓  ↓  ↓  ↓  ↓  ↑

E|----------------------------------------------------|
B|----------------------------------------------------|
G|-12-12-12-12-12-12-12-12-12-------------------------|
D|----------------------------------------------------|
A|-10-10-10-10-10-10-10-10-12-------------------------|
E|----------------------------------------------------|
   ↓  ↓  ↓  ↓  ↓  ↓  ↓  ↓  ↑


I never conquered, rarely came

Sixteen just held such better days

Days when I still felt alive
                            D
We couldn't wait to get outside
               Em                 Bm
The world was wide, too late to try
             G             D
The tour was over we'd survived
            Em              Bm
I couldn't wait till I got home
             G
To pass the time in my room alone


(Introdução)


Segunda Parte:

D5           G5               B5
   I never thought, I'd die alone
             G5                D5
Another six months I'll be unknown
              G5               B5
Give all my things to all my friends
                   G5               D5
You'll never step foot in my room again
                G5            B5
You'll close it off, board it up
              G5                      D5
Remember the time that I spilled the cup
          G5           B5
Of apple juice in the hall?
             G5
Please tell mom this is not her fault

Riff 2 - 2x:

E|----------------------------------------------------|
B|----------------------------------------------------|
G|-------0----------0----------0----------0-----------|
D|----7----------7----------9----------9--------------|
A|-5----------5----------7----------7-----------------|
E|----------------------------------------------------|

E|----------------------------------------------------|
B|----------------------------------------------------|
G|----------------------------------------------------|
D|----4--0-------4--0-------2--0-------2--0-----------|
A|-2----------2---------------------------------------|
E|-----------------------3----------3-----------------|

Segundo Refrão:

I never conquered, rarely came

Sixteen just held such better days

Days when I still felt alive
                            D
We couldn't wait to get outside
               Em                 Bm
The world was wide, too late to try
             G             D
The tour was over we'd survived
            Em              Bm
I couldn't wait till I got home
             G
To pass the time in my room alone


Ponte:

E|----------------------------------------------------|
B|----------------------------------------------------|
G|-----0-----0----------------------------------------|  (16x)
D|---4-----4-----4------------------------------------|
A|-5-----5-----5--------------------------------------|
E|----------------------------------------------------|

E|----------------------------------------------------|
B|-----3-----3-----3-----3-----3----------------------|
G|-------------------------------2--------------------|  (4x)
D|-0-0---0-0---0-0---0-0---0-0------------------------|
A|----------------------------------------------------|
E|----------------------------------------------------|


Terceiro Refrão:

D          Em                Bm
  I never conquered, rarely came
          G                 D
Tomorrow holds such better days
          Em                   Bm
Days when I could still feel alive
              G              D
When I can't wait to get outside
              Em                  Bm
The world is wide, the time goes by
            G          D
The tour is over I survived
             Em              Bm
And I can't wait till I get home
             G                D
To pass the time in my room alone

Clipes