busca

After Midnight

Blink-182

Intro:
G|---------------------------------------------------------------------------|
D|-------------------------00-00-00-00---------------------------------------|
A|-00-00-00-00-00-00-00-00---------------------------------------------------|
E|---------------------------------------------------------------------------|

Verso:
G|---------------------------------------------------------------------------|
D|---------------------------------------------------------------------------|
A|-0000000000000000000000000000000-------------------------------------------|
D|--------------------------------00000000000000000000000000000000-----------|

Pré-Refrão:
G|---------------------------------------------------------------------------|
D|---------------------------------------------------------------------------|
A|-9999999999999999555555555555555500000000000000000000000000000000----------|
E|---------------------------------------------------------------------------|

G|---------------------------------------------------------------------------|
D|---------------------------------------------------------------------------|
A|-99999999999999995555555555555555------------------------------------------|
E|---------------------------------------------------------------------------|

Refrão:
G|---------------------------------------------------------------------------|
D|---------------------------------------------------------------------------|
A|-000000000000000000000000000000055555555555555555555555555555555-----------|
E|---------------------------------------------------------------------------|

Ponte 1:
G|-9999999999999999777777777777777-------------------------------------------|
D|-7777777777777777777777777777777-------------------------------------------|
A|--------------------------------55555555555555555555555555555555-----------|
E|---------------------------------------------------------------------------|

Ponte 2:
G|---------------------------------------------------------------------------|
D|---9--9-9--9--9-9--9--9-9--9--9-9--7--7-7--7--7-7--7--7-7--7--7-7----------|
A|-77-77-7-77-77-7-77-77-7-77-77-7-55-55-5-55-55-5-55-55-5-55-55-5-----------|
E|---------------------------------------------------------------------------|

Clipes

Cifra Club Pro

Aproveite o Cifra Club com benefícios exclusivos e sem anúncios
7 dias grátis
Cifra Club Pro
Aproveite o Cifra Club com benefícios exclusivos e sem anúncios
7 dias grátis