Aliens Exist

Blink-182

B5
134
X244XX
C#5
134
X466XX
D#5
134
X688XX
E5
12
022XXX
E9
123
024100
F#5
134
244XXX
G#5
134
466XXX
Tom: G
#1t1##1t2#E|------------------------|
B|------------------------|
G|------------------------|
D|------------------------|
A|-2-2-2-2-2-2-2-2----2---|
E|------------------------|#/1t2##/1t1#

(intro 2x) (B5   E5   G#5   E5

(verso 2)
B5             F#5                  G#5    E5  B5
What if people knew that these were real?      I leave my closet
F#5           G#5    E5  B5           C#5          G#5
door open all night.     I know the CIA would say, what your hear
   E5            B5                 F#5              G#5
is all hear-say. Wish someone would tell me what was right.

(refrão)
B5            F#5               B5             F#5
Up, all night long. And there's something very wrong. And I
   know    it      must    be      late                      been  gone    since   yes  -  ter  -  day.                 ...
#2t1##2t2#E|------------------------------------------------------------------------------------------------------------------------|
B|------------------------------------------------------------------------------------------------------------------------|
G|------------------------------------------------------------------------------------------------------------------------|
D|-1-1-----1-1-----1-1-----1-1-----2-2-----2-2-----2-2-----2-2-----1-1-----1-1-----1-1-----1-1-----2-2-----2-2-----2-2----|
A|-----2-------2-------2-------2-------2-------2-------2-------2-------2-------2-------2-------2-------2-------2-------2--|
E|------------------------------------------------------------------------------------------------------------------------|#/2t2##/2t1#

#3t1#   I'm  not   like  you  guys.          I'm  not   like  you.
#3t2#E|-----------------------------------------------------------|
B|-----------------------------------------------------------|
G|-----------------------------------------------------------|
D|-----------------------------------------------------------|
A|-----------------------2-----------------------------------|
E|-2----------0-------------------------2----------0---------|#/3t2##/3t1#

(interlúdio 2x)  B5   E5   G#5   E5

(verso 3)
I am still the skeptic yes you know me. Been best friends and will be till we die.
I got an injection, of fear from the abduction. My best friend thinks I'm just telling lies.  Alright.

(refrão)
Up, all night long, and there's something very wrong. And I know it must be late,
been gone since yesterday. I'm not like you guys. I'm not like you.

(ponte
G#5             F#5       E5            B5   F#5
Dark and scary, ordinary, explanations, information.
D#5             C#5       E5                D#5  C#5
Nice to know ya. Paranoia. Where's my mother, Bio - father?

(refrão)
Up all night long, and there's something very wrong, and I know it must be late,
been gone since yesterday. I'm not like you guys.
F#5       E9      B5
Twelve  majestic  lies.
Composição: Mark Hoppus / Tom DeLongeColaboração e revisão: Jefferson Sousa