busca

All of This

Blink-182

G-----|
D-----| x2
A--0--|
E-----|

Verse

G-------------------------------|
D-------------------------------|  x2
A------------22245~-------------|
E-2220-2-0-2--------------------|

G-------------------------------|
D-------------------------------|  x2
A---------00----00--0-02224445~-|
E-222000-----00----0-0----------|

Chorus

G----------------------------------|
D----------------------------------| x2
A-999999999999777700000000-0-0-----|
E----------------------------------|

G-----|
D-----| x2
A--0--|
E-----|

Verse

G-------------------------------|
D-------------------------------|  x2
A------------22245~-------------|
E-2220-2-0-2--------------------|

G-------------------------------|
D-------------------------------|  x2
A---------00----00--0-02224445~-|
E-222000-----00----0-0----------|

Chorus

G----------------------------------|
D----------------------------------| x2
A-999999999999777700000000-0-0-----|
E----------------------------------|

G-------------------------------|
D-------------------------------| x4
A-55555555-5p0------------------|
E--------------5p0--------------|

Chorus

G-----------------------------|
D-----------------------------| x4
A-999999-5p0------------------|
E------------5p0--------------|

G-------------------------------|
D-------------------------------| x4
A-55555555-5p0------------------|
E--------------5p0--------------|

G-------------------------------|
D-------------------------------|  x2
A---------00----00--0-02224445~-|
E-222000-----00----0-0----------|

Verse

G-------------------------------|
D-------------------------------|  x2
A---------00----00--0-02224445~-|
E-222000-----00----0-0----------|

G-------------------------------|
D-------------------------------|  x2
A------------22245~-------------|
E-2220-2-0-2--------------------|

Clipes

Cifra Club Pro

Aproveite o Cifra Club com benefícios exclusivos e sem anúncios
7 dias grátis
Cifra Club Pro
Aproveite o Cifra Club com benefícios exclusivos e sem anúncios
7 dias grátis