And I don't think that you're the one

Blink-182

A
123
X02220
D
123
XX0232
G
123
320003
Tom: G
Intro Riff (x8)
It's never over 'til it's done
And I don't think that you're the one

Intro Riff (x4)
End with A5.

Dysentary Gary
Tom :D

#1t1#Intro: (2x) strummed fast using up/down strokes
#1t2#E|----------------------------------------------------------|
B|----------------------------------------------------------|
G|----------------------------------------------------------|
D|----------------------------------------------------------|
A|-9-9-9-9-9------------10-10-10-10--9-9-9-9-9--------------|
E|------------10-10-10--------------------------10-10-10-10-|#/1t2##/1t1#
                                                          
#2t1##2t2#e|-----------------------------------------------------|
B|-----------------------------------------------------|
G|-----------------------------------------------------|
D|-------------4-4-4-4---------------------------------|
A|---------------------------------4-4-4-4-4-5---------|
E|--3-3-3-3-------------5-5-5-5------------------------|#/2t2##/2t1#
                                             
Intro w/ Fill (2x)
Fill:                              
#3t1##3t2#E|---D-----------------G-----------------A------------|
B|----------------------------------------------------| 
G|---7-7-7-7-7-7-7-7----------------------------------|
D|---7-7-7-7-7-7-7-7---5-5-5-5-5-5-5-5---7-7-7-7-7-7--|
A|---5-5-5-5-5-5-5-5---5-5-5-5-5-5-5-5---7-7-7-7-7-7--|
E|---------------------3-3-3-3-3-3-3-3---5-5-5-5-5-5--|#/3t2##/3t1#
    
#4t1#Riff 1: (2x) muted fast                               
#4t2#e|---D-----------------D-----------------G------------------|
B|----------------------------------------------------------|
G|---7-x-x-x-x-x-x-7---7-x-x-x-x-x-x-7----------------------|
D|---7-x-x-x-x-x-x-7---7-x-x-x-x-x-x-7---5-x-x-x-x-x-x-5----|
A|---5-x-x-x-x-x-x-5---5-x-x-x-x-x-x-5---5-x-x-x-x-x-x-5----|
E|---------------------------------------3-x-x-x-x-x-x-3----|
E|----A----------------------|
B|---------------------------|
G|---------------------------|
D|----7-x-x-7-x-x-x-7-x-7----|
A|----7-x-x-7-x-x-x-7-x-7----|
E|----5-x-x-5-x-x-x-5-x-5----|#/4t2##/4t1#
D                        D
 Got a lotta heart ache.  He's a fucken weasel.
G                              A
 His issues make my mind ache.  Wanna make a deal.
D                                 D
 Cause I love your little motions. You with your pigtails.
G                      A
 What a nice creation.  Worth another night in jail. 
Pre-Chorus: (1x)-Clean Guitar
#5t1##5t2#E|---D-----------------------G---------------A--------------|
B|----------------------------------------------------------|
G|---7-7-7-7-7-7-7-7-7-7-7----------------------------------|
D|---7-7-7-7-7-7-7-7-7-7-7---5-5-5-5-5-5-5---7-7-7-7-7-7-7--|
A|---5-5-5-5-5-5-5-5-5-5-5---5-5-5-5-5-5-5---7-7-7-7-7-7-7--|
E|---------------------------3-3-3-3-3-3-3---5-5-5-5-5-5-5--|#/5t2##/5t1#
#6t1#Chorus: (1x)
#6t2#E|---D-----------------------G---------------A--------------|
B|----------------------------------------------------------|
G|---7-7-7-7-7-7-7-7-7-7-7----------------------------------|
D|---7-7-7-7-7-7-7-7-7-7-7---5-5-5-5-5-5-5---7-7-7-7-7-7-7--|
A|---5-5-5-5-5-5-5-5-5-5-5---5-5-5-5-5-5-5---7-7-7-7-7-7-7--|
E|---------------------------3-3-3-3-3-3-3---5-5-5-5-5-5-5--|#/6t2##/6t1#
D
He's a player, diarrhea giver, tried to grow his hair out,
when friends were listening to Slayer.
G
I would like to find him Friday night.
A
Hanging out with mom and trying on his father's tights.
Post-Chorus: (6x)
#7t1##7t2#E|---15-14----------------------|
B|------------15----------------|
G|-------------------12-12-12---|
D|------------------------------|
A|------------------------------|
E|------------------------------|#/7t2##/7t1#
(1)              (2)             (3)            (4)
Life just sucks, I lost the one. I'm giving up, she found someone.
(5)                  (6)
There's plenty more. Girls are such a drag.
Intro w/ Fill (2x)
Fill:
#8t1##8t2#E|---D-----------------G-----------------A------------|
B|----------------------------------------------------|
G|---7-7-7-7-7-7-7-7----------------------------------|
D|---7-7-7-7-7-7-7-7---5-5-5-5-5-5-5-5---7-7-7-7-7-7--|
A|---5-5-5-5-5-5-5-5---5-5-5-5-5-5-5-5---7-7-7-7-7-7--|
E|---------------------3-3-3-3-3-3-3-3---5-5-5-5-5-5--|#/8t2##/8t1#
#9t1#Riff 1: (2x) muted fast                                 
#9t2#e|---D-----------------D-----------------G------------------|
B|----------------------------------------------------------|
G|---7-x-x-x-x-x-x-7---7-x-x-x-x-x-x-7----------------------|
D|---7-x-x-x-x-x-x-7---7-x-x-x-x-x-x-7---5-x-x-x-x-x-x-5----|
A|---5-x-x-x-x-x-x-5---5-x-x-x-x-x-x-5---5-x-x-x-x-x-x-5----|
E|---------------------------------------3-x-x-x-x-x-x-3----|
E|----A----------------------|
B|---------------------------|
G|---------------------------|
D|----7-x-x-7-x-x-x-7-x-7----|
A|----7-x-x-7-x-x-x-7-x-7----|
E|----5-x-x-5-x-x-x-5-x-5----|#/9t2##/9t1#
D                         D
 So all you little ladies. Be sure to choose the right guys. 
G                             A
 You'll come back to me maybe. I'll shower you with lies.
D                       D
 Got a lotta heart ache. He's a fucken weasel. 
G                            A
 Decisions make my mind ache. Wanna make a deal.
Pre-Chorus: (2x)-Clean Guitar
#10t1##10t2#E|---D-----------------------G---------------A--------------|
B|----------------------------------------------------------|
G|---7-7-7-7-7-7-7-7-7-7-7----------------------------------|
D|---7-7-7-7-7-7-7-7-7-7-7---5-5-5-5-5-5-5---7-7-7-7-7-7-7--|
A|---5-5-5-5-5-5-5-5-5-5-5---5-5-5-5-5-5-5---7-7-7-7-7-7-7--|
E|---------------------------3-3-3-3-3-3-3---5-5-5-5-5-5-5--|#/10t2##/10t1#
D
Ease away the problems and the pain.
The girl chose the guy that makes you wanna kick and scream.
G
All along, you wish that she would stay.
A
Fuck the guy that took and ran away, yeah.
Chorus: (1x)
#11t1##11t2#E|---D-----------------------G---------------A--------------|
B|----------------------------------------------------------|
G|---7-7-7-7-7-7-7-7-7-7-7----------------------------------|
D|---7-7-7-7-7-7-7-7-7-7-7---5-5-5-5-5-5-5---7-7-7-7-7-7-7--|
A|---5-5-5-5-5-5-5-5-5-5-5---5-5-5-5-5-5-5---7-7-7-7-7-7-7--|
E|---------------------------3-3-3-3-3-3-3---5-5-5-5-5-5-5--|#/11t2##/11t1#
D
He's a player, diarrhea giver, tried to grow his hair out,
when friends were listening to Slayer. 
G
I would like to find him Friday night.
A
Hanging out with mom and trying on his father's tights.
Post-Chorus: (6x)
#12t1##12t2#E|---15-14----------------------|
B|------------15----------------|
G|-------------------12-12-12---|
D|------------------------------|
A|------------------------------|
E|------------------------------|#/12t2##/12t1#
(1)              (2)             (3)            (4)
Life just sucks, I lost the one. I'm giving up, she found someone.
(5)                  (6)
There's plenty more. Girls are such a drag.
[Bass Solo Type Thing] PLAY D then G clean (4x)
Post-Chorus: (6x)
#13t1##13t2#E|---15-14----------------------|
B|------------15----------------|
G|-------------------12-12-12---|
D|------------------------------|
A|------------------------------|
E|------------------------------|#/13t2##/13t1#
(1)              (2)             (3)             (4)
Fuck this place, I lost the war. I hate you all, your mom's a whore. 
(5)             (6)
Where's my dog? Cause girls are such a drag.
End on Intro(Slightly Different)
#14t1##14t2#E|----------------------------------------------------------|
B|----------------------------------------------------------|
G|----------------------------------------------------------|
D|----------------------------------------------------------|
A|-9-9-9-9-9------------10-10-10-10--9-9-9-9-9--------------|
E|------------10-10-10--------------------------10-10-10-10-|#/14t2##/14t1#
Composição: Artie Kornfeld / Barker / Brian Wilson / Feldman / Feldmann / Hodges / Hoppus / Iil Aaron / J. P. Clark / Jan Berry / John Feldmann / John Lennon / Johnson / JP Clark / JRM / Mark Hoppus / Matt Malpass / Matt Skiba / Matt Skibba / Mott The Hopple / NOFX / Ono Yoko / Roger Christian / Sam Hollander / Skiba / Smrdeath / Stump / T. Hales / Thabiso Nkhereanye / The Cure / Tim Pagnotta / Tom / Tom DeLonge / Travis BarkerColaboração e revisão: