Another Girl Another Planet

Blink-182

Tom: G
Intro:

#1t1#Guitarra 1:
#1t2#|PM----------------------------------------------------------------------|
|-----------------|-----------------|----------------|-------------------|
|-----------------|-----------------|----------------|-------------------|
|-----------------|-----------------|----------------|-------------------|
|-0-0-0-0-0-0-0-0-|-0-7-0-7-0-0-7-0-|-9-9-9-9-9-0--5-|-5-5-5-5-5-5-5-5---|
|-5-5-5-5-5-5-5-5-|-5-5-5-5-5-5-5-5-|-7-7-7-7-7-5--3-|-3-3-3-3-3-3-3-3---|
|-----------------|-----------------|----------------|-------------------|#/1t2##/1t1#

#2t1#Guitarra 2:
#2t2#|-----------------|-----------------|----------------|-----------------|
|-----------------|-----------------|----------------|-----------------|
|-----------------|-----------------|----------------|-----------------|
|-----------------|-----------------|----------------|-----------------|
|-----------------|-----------------|----------------|-----------------|
|-----------------|-----------------|----------------|-----------------|#/2t2##/2t1#


#3t1##3t2#|---------------------------------------------------------------------------------|
|-----------------|-------------------|------------------|------------------------|
|-----------------|-------------------|------------------|------------------------|
|-----------------|-------------------|------------------|------------------------|
|-0-0-0-0-0-0-0-0-|--0--7-0-7-0-0-7-0-|--9--9-9-9-9-0--5-|--5--5-5-5-5-5-5-5------|
|-5-5-5-5-5-5-5-5-|--5--5-5-5-5-5-5-5-|--7--7-7-7-7-5--3-|--3--3-3-3-3-3-3-3------|
|-----------------|-------------------|------------------|------------------------|#/3t2##/3t1#

#4t1#                     >
#4t2#|-----------------|-------------------|------------------|----------------------|
|-----------------|-------------------|------------------|----------------------|
|-----------------|-------------------|------------------|----------------------|
|-x-x-5-----------|-(5)---------------|-(5)--------------|-(5)------------------|
|-x-x-5-----------|-(5)---------------|-(5)--------------|-(5)------------------|
|-x-x-3-----------|-(3)---------------|-(3)--------------|-(3)------------------|#/4t2##/4t1#


#5t1#Guitarra 2:
#5t2#|-------------------------|-------------------------|-------------------------|-------------------------|
|-------------------------|-------------------------|-------------------------|-------------------------|
|-16-16-16-16-16-16-16-16-|-14-14-14-14-14-14-14-14-|-16-16-16-16-16-16-16-16-|-17-17-17-17-17-17-17-17-|
|--x--x--x--x--x--x--x--x-|--x--x--x--x--x--x--x--x-|--x--x--x--x--x--x--x--x-|--x--x--x--x--x--x--x--x-|
|-14-14-14-14-14-14-14-14-|-12-12-12-12-12-12-12-12-|-14-14-14-14-14-14-14-14-|-15-15-15-15-15-15-15-15-|
|-------------------------|-------------------------|-------------------------|-------------------------|#/5t2##/5t1#

#6t1#Guitarra 1:
#6t2#|PM------------------------------------------------------------------------------------------------------|
|-------------------------|-------------------------|-------------------------|--------------------------|
|-------------------------|-------------------------|-------------------------|--------------------------|
|-------------------------|-------------------------|-------------------------|--------------------------|
|--0--0--0--0--0--0--0--0-|--0--7--0--7--0--0--7--0-|--9--9--9--9--9--0-----5-|--5--5--5--5--5--5--5--5--|
|--5--5--5--5--5--5--5--5-|--5--5--5--5--5--5--5--5-|--7--7--7--7--7--5-----3-|--3--3--3--3--3--3--3--3--|
|-------------------------|-------------------------|-------------------------|--------------------------|#/6t2##/6t1#

#7t1##7t2#|-------------------------|-------------------------|-------------------------|-------------------------|
|-------------------------|-------------------------|-------------------------|-------------------------|
|-16-16-16-16-16-16-16-16-|-14-14-14-14-14-14-14-14-|-12-12-12-12-12-12-12-12-|-12-12-12-12-12-12-------|
|--x--x--x--x--x--x--x--x-|--x--x--x--x--x--x--x--x-|--x--x--x--x--x--x--x--x-|--x--x--x--x--x--x-------|
|-14-14-14-14-14-14-14-14-|-12-12-12-12-12-12-12-12-|-10-10-10-10-10-10-10-10-|-10-10-10-10-10-10-------|
|-------------------------|-------------------------|-------------------------|-------------------12\---|#/7t2##/7t1#

#8t1##8t2#|--------------------------------------------------------------------------------------------------------|
|-------------------------|-------------------------|-------------------------|--------------------------|
|-------------------------|-------------------------|-------------------------|--------------------------|
|-------------------------|-------------------------|-------------------------|--------------------------|
|--0--0--0--0--0--0--0--0-|--0--7--0--7--0--0--7--0-|--9--9--9--9--9--0-----5-|--5--5--5--5--5--5--5--5--|
|--5--5--5--5--5--5--5--5-|--5--5--5--5--5--5--5--5-|--7--7--7--7--7--5-----3-|--3--3--3--3--3--3--3--3--|
|-------------------------|-------------------------|-------------------------|--------------------------|#/8t2##/8t1#

#9t1##9t2#|-----------------|-----------------------|-------------------|---------------------|
|-----------------|-----------------------|-------------------|---------------------|
|--------------7--|-(7)--7--7-----7---7-9-|-(9)-9-9-9---7---5-|-5--5---5--5---5-4-2-|
|-5--5--5-5-5--7--|-(7)--7--7-----7---7-9-|-(9)-9-9-9---7---5-|-5--5---5--5---5-4-2-|
|-5--5--5-5-5--5--|-(5)--5--5-----5---5-7-|-(7)-7-7-7---5---3-|-3--3---3--3---3-2-0-|
|-3--3--3-3-3-----|-----------------------|-------------------|---------------------|#/9t2##/9t1#

Guitarra 2:
| ~~~~~~~~~~~~~~~~~~~~~~~~~~~~~~~~~~~~~~~~~~~~~~~~~~~~~~~~~~~~~~~~~~~~~~~~
#10t1##10t2#|-----------------|-----------------------|-------------------|---------------------|
|-----------------|-----------------------|-------------------|---------------------|
|-----------------|-----------------------|-------------------|---------------------|
|-----------------|-----------------------|-------------------|-----------4-5-4-5-7-|
|-----------5-(5)-|--5--(5)---(5)---3-5---|--7----7-7-7---5---|-3-(3)-(3)-----------|
|-3--3------------|-----------------------|-------------------|---------------------|#/10t2##/10t1#

#11t1##11t2#|-------------------------|--------------------------|----------------------------|--------------------------|
|-------------------------|--------------------------|----------------------------|--------------------------|
|-----------------------7-|-(7)--7--7-----7-----7--9-|-(9)--9--9--9-----7-------5-|-(5)--5--5--5-----5--5--4-|
|--5-----5-----5--5--5--7-|-(7)--7--7-----7-----7--9-|-(9)--9--9--9-----7-------5-|-(5)--5--5--5-----5--5--4-|
|--5-----5-----5--5--5--5-|-(5)--5--5-----5-----5--7-|-(7)--7--7--7-----5-------3-|-(3)--3--3--3-----3--3--2-|
|--3-----3-----3--3--3----|--------------------------|----------------------------|--------------------------|
|#/11t2##/11t1#
#12t1##12t2#|-------------------------|--------------------------|----------------------------|--------------------------|
|-------------------------|--------------------------|----------------------------|--------------------------|
|-12-12-12-12-12-12-12-12-|-12--12-12-12-12-12-16-17-|-19--19-19-19-17-16-(16)-12-|-12--12-12-12-12-12-12-12-|
|--x--x--x--x--x--x--x--x-|--x---x--x--x--x--x--x--x-|--x---x--x--x--x--x--(x)--x-|--x---x--x--x--x--x--x--x-|
|-10-10-10-10-10-10-10-10-|-10--10-10-10-10-10-14-15-|-17--17-17-17-15-14-(14)-10-|-10--10-10-10-10-10-10-10-|
|-------------------------|--------------------------|----------------------------|--------------------------|#/12t2##/12t1#

#13t1##13t2#|---------------|------------------|------------------|-------------------|-----------------|
|---------------|------------------|------------------|-------------------|-----------------|
|-------------7-|-(7)-7-7--7---7-9-|-(9)-9-9-9---7--5-|-(5)-5-5-5---5-5-4-|---------------7-|
|-5--5--5-5-5-7-|-(7)-7-7--7---7-9-|-(9)-9-9-9---7--5-|-(5)-5-5-5---5-5-4-|--5--5---5-5-5-7-|
|-5--5--5-5-5-5-|-(5)-5-5--5---5-7-|-(7)-7-7-7---5--3-|-(3)-3-3-3---3-3-2-|--5--5---5-5-5-5-|
|-3--3--3-3-3---|------------------|------------------|-------------------|--3--3---3-3-3---|
|#/13t2##/13t1#
#14t1#| ~~~~~~~~~~~~~~~~~~~~~~~~~~~~~~~~~~~~~~~~~~~~~~~~~~~~~~~~~~~~~~~~~~~~~~~~~~~~~~~~~~~~~~~~~~~
#14t2#|---------------|------------------|------------------|-------7-----------|-10--------------|
|-8-------------|-10----8--7-8-----|--8---------------|-10----------------|-----------------|
|-------7-------|------------------|-----------7------|-----------5-------|--------12-------|
|---------------|------------------|------------------|-------------------|-----------------|
|---------------|------------------|------------------|-------------------|-----------------|
|---------------|------------------|------------------|-------------------|-----------------|#/14t2##/14t1#

#15t1##15t2#|-------------------------------|-------------------|--------------------------|
|-------------------------------|-------------------|--------------------------|
|-(7)-7-7------7---------7----9-|-(9)-9-9--9---7--5-|--(5)-5--5-5-----5-5-4----|
|-(7)-7-7------7---------7----9-|-(9)-9-9--9---7--5-|--(5)-5--5-5-----5-5-4----|
|-(5)-5-5------5---------5----7-|-(7)-7-7--7---5--3-|--(3)-3--3-3-----3-3-2----|
|-------------------------------|-------------------|--------------------------|
|#/15t2##/15t1#
#16t1##16t2#|~~~~~~~~~~~~~~~~~~~~~~~~~~~~~~~~~~~~~~~~~~~~~~~~~~~~~~~~~~~~~~~~~~~~~~~
|-------------------------------|-------------------|--------------------------|
|-12------(12)---(12)-----------|-------------------|--------------------------|
|--------------------------14---|---------11--12----|-(12)---------------------|
|---------------------12--------|-12----------------|------9-10-9-10-12--------|
|-------------------------------|-------------------|--------------------------|
|-------------------------------|-------------------|--------------------------|#/16t2##/16t1#

Verso:
                                           
#17t1#Guitarra 2: 
#17t2#|--------------------|------------------|--------------------|
|o-------------------|------------------|--------------------|
|--12-----------14---|-(14)-------------|-12--------------14-|
|--------12----------|------------------|-----------12-------|
|o-------------------|------------------|--------------------|
|--------------------|------------------|--------------------|#/17t2##/17t1#

#18t1#Guitarra 1:
#18t2#|--------------------|------------------|--------------------|
|o-------------------|------------------|--------------------|
|--------------------|------------------|--------------------|
|------------------7-|--(7)-7-7--7--7-9-|-(9)-9-9-9----7---5-|
|o--5--5----5-5--5-5-|--(5)-5-5--5--5-7-|-(7)-7-7-7----5---3-|
|---3--3----3-3--3---|------------------|--------------------|#/18t2##/18t1#

#19t1#                                 2.
#19t2#|-----------------------------||-------------------|------------------------------|
|----------------------------o||-------------------|------------------------------|
|-(14)---(14)------12---11----||-12-------------14-|-(14)---(14)------12---11-----|
|-------------12--------------||----------12-------|-------------12---------------|
|----------------------------o||-------------------|------------------------------|
|-----------------------------||-------------------|------------------------------|
|#/19t2##/19t1#
#20t1##20t2#|-----------------------------||-------------------|------------------------------|
|----------------------------o||-------------------|------------------------------|
|-----------------------------||-------------------|------------------------------|
|--(5)-5-------5-5----5--5-5--||--9-9-9-9----7---5-|---5--5-------5-5----5--------|
|--(3)-3-------3-3----3--3-3-o||--7-7-7-7----5---3-|---3--3-------3-3----3--------|
|-----------------------------||-------------------|-----------------------10\----|#/20t2##/20t1#

Refrão:

#21t1#Guitarra 2           
#21t2#|----------------|------------------|-------------|----------------|
|o---------------|------------------|-------------|---------------o|
|--------------7-|-(7)-7-7-7-7-7----|-9---5-5---5-|-5--/9\--7------|
|--5--5-5-5--5-7-|-(7)-7-7-7-7-7-7--|-9---5-5---5-|-5---x\--x------|
|o-5--5-5-5--5-5-|-(5)-5-5-5-5-5-5--|-7---3-3---3-|-3--/7\--5-----o|
|--3--3-3-3--3---|------------------|-------------|----------------|#/21t2##/21t1#

#22t1#Guitarra 1
#22t2#|----------------|------------------|-------------|----------------|
|o---------------|------------------|-------------|---------------o|
|--------------7-|-(7)-7-7-7-7-7----|-9---5-5---5-|-5--/9\--7------|
|--5--5-5-5--5-7-|-(7)-7-7-7-7-7-7--|-9---5-5---5-|-5---9\--7------|
|o-5--5-5-5--5-5-|-(5)-5-5-5-5-5-5--|-7---3-3---3-|-3--/7\--5-----o|
|--3--3-3-3--3---|------------------|-------------|----------------|#/22t2##/22t1#

Interlúdio

#23t1#Guitarra 1:
#23t2#|----------|---------|----------|------|
|----------|---------|----------|------|
|----------|---------|-7--------|-5----|
|-5--------|---------|-7--------|-5----|
|-5--------|---------|-5--------|-3----|
|-3--------|---------|----------|------|#/23t2##/23t1#

#24t1##24t2#|--------------------|------------------|
|o-------------------|------------------|
|------------------7-|--(7)-7-7--7--7-9-|
|---5--5----5-5--5-7-|--(7)-7-7--7--7-9-|
|o--5--5----5-5--5-5-|--(5)-5-5--5--5-7-|
|---3--3----3-3--3---|------------------|#/24t2##/24t1#

#25t1#Guitarra 2:
#25t2#|--------------------|------------------|
|o-------------------|------------------|
|--12-----------12---|-(12)-------------|
|--------12----------|------------------|
|o-------------------|------------------|
|--------------------|------------------|#/25t2##/25t1#

#26t1#Guitarra 1:
#26t2#|--------------------|-----------------------|
|--------------------|----------------------o|
|-(9)-9-9-9----7---5-|---5--5--5-5---5-4-2---|
|-(9)-9-9-9----7---5-|---5--5--5-5---5-4-2---|
|-(7)-7-7-7----5---3-|---3--3--3-3---3-2-0--o|
|--------------------|-----------------------|#/26t2##/26t1#
#27t1#Guitarra 2:
#27t2#|--------------------|-----------------------||
|--------------------|----------------------o||
|-12--------------14-|-(14)------------------||
|-----------12-------|-----------------------||
|--------------------|----------------------o||
|--------------------|-----------------------||#/27t2##/27t1#

#28t1#Guitarra 1:
#28t2#|----------------------------|---------------------------|-----------------------------|
|o---------------------------|---------------------------|-----------------------------|
|--------------------------7-|--(7)--7--7-----7-----7--9-|-(9)--9--9--9--------7-----5-|
|---5--------5-----5--5--5-7-|--(7)--7--7-----7-----7--9-|-(9)--9--9--9--------7-----5-|
|o--5--------5-----5--5--5-5-|--(5)--5--5-----5-----5--7-|-(7)--7--7--7--------5-----3-|
|---3--------3-----3--3--3---|---------------------------|-----------------------------|#/28t2##/28t1#

#29t1#Guitarra 2:
#29t2#|----------------------------|---------------------------|-----------------------------|
|o-15-15-15-15-15------------|---------------------------|-----------------------------|
|-----------------14-14-12---|--12--12-12-12-12-12-12-12-|-11--11-11-11----------------|
|----------------------------|---------------------------|-----------------12-12-12-12-|
|o---------------------------|---------------------------|-----------------------------|
|----------------------------|---------------------------|-----------------------------|#/29t2##/29t1#

#30t1##30t2#|----------------------------|---------------------------|-----------------------------|
|o---------------------------|---------------------------|-----------------------------|
|--12-------------------12---|-(12)----------------------|-12-----------------------14-|
|--------------12------------|---------------------------|--------------12-------------|
|o---------------------------|---------------------------|-----------------------------|
|----------------------------|---------------------------|-----------------------------|#/30t2##/30t1#

#31t1#Guitarra 1:
#31t2#|----------------------------||----------------------------|
|---------------------------o||----------------------------|
|---5---5--5--5-----5--4--2--||--5--5--5--5-----5--4--2----|
|---5---5--5--5-----5--4--2--||--5--5--5--5-----5--4--2----|
|---3---3--3--3-----3--2--0-o||--3--3--3--3-----3--2--0----|
|----------------------------||----------------------------|#/31t2##/31t1#

#32t1#Guitarra 2:
#32t2#|----------------------------||----------------------------|
|---------------------------o||----------------------------|
|--14--14-------12-12-12-12--||-14-14-------12-12-12-12----|
|---------12-12--------------||-------12-12----------------|
|---------------------------o||----------------------------|
|----------------------------||----------------------------|
|#/32t2##/32t1#
#33t1##33t2#|----------------------------||----------------------------|
|---------------------------o||----10--8-10--8--7-----8----|
|-(14)-----------------------||----------------------------|
|----------------------------||----------------------------|
|---------------------------o||----------------------------|
|----------------------------||----------------------------|#/33t2##/33t1#

Verso

#34t1#Guitarra 2:
#34t2#|--------------------|------------------|--------------------|
|o-------------------|------------------|--------------------|
|--12-----------14---|-(14)-------------|-12--------------14-|
|--------12----------|------------------|-----------12-------|
|o-------------------|------------------|--------------------|
|--------------------|------------------|--------------------|#/34t2##/34t1#

Guitarra 1:
||--------------------|------------------|--------------------|
||o-------------------|------------------|--------------------|
||--------------------|------------------|--------------------|
||------------------7-|--(7)-7-7--7--7-9-|-(9)-9-9-9----7---5-|
||o--5--5----5-5--5-5-|--(5)-5-5--5--5-7-|-(7)-7-7-7----5---3-|
||---3--3----3-3--3---|------------------|--------------------|

#35t1#Guitarra 2:
#35t2#|-----------------------------||-------------------|------------------------------|
|----------------------------o||-------------------|------------------------------|
|-(14)---(14)------12---11----||-12-------------14-|-(14)---(14)------12---11-----|
|-------------12--------------||----------12-------|-------------12---------------|
|----------------------------o||-------------------|------------------------------|
|-----------------------------||-------------------|------------------------------|#/35t2##/35t1#

#36t1#Guitarra 1:
#36t2#|-----------------------------||-------------------|------------------------------|
|----------------------------o||-------------------|------------------------------|
|-----------------------------||-------------------|------------------------------|
|--(5)-5-------5-5----5--5-5--||--9-9-9-9----7---5-|---5--5-------5-5----5--------|
|--(3)-3-------3-3----3--3-3-o||--7-7-7-7----5---3-|---3--3-------3-3----3--------|
|-----------------------------||-------------------|-----------------------10\----|#/36t2##/36t1#

Refrão:
  
#37t1#Guitarra 1:                                                       4x
#37t2#|----------------|------------------|-------------|---------------|
|o---------------|------------------|-------------|--------------o|
|--------------7-|-(7)-7-7-7-7-7----|-9---5-5---5-|-5--/9\--7-----|
|--5--5-5-5--5-7-|-(7)-7-7-7-7-7-7--|-9---5-5---5-|-5---x\--x-----|
|o-5--5-5-5--5-5-|-(5)-5-5-5-5-5-5--|-7---3-3---3-|-3--/7\--5----o|
|--3--3-3-3--3---|------------------|-------------|---------------|#/37t2##/37t1#

#38t1#Guitarra 2:                                                       4x
#38t2#|----------------|------------------|-------------|---------------|
|o---------------|------------------|-------------|--------------o|
|--------------7-|-(7)-7-7-7-7-7----|-9---5-5---5-|-5--/9\--7-----|
|--5--5-5-5--5-7-|-(7)-7-7-7-7-7-7--|-9---5-5---5-|-5---9\--7-----|
|o-5--5-5-5--5-5-|-(5)-5-5-5-5-5-5--|-7---3-3---3-|-3--/7\--5----o|
|--3--3-3-3--3---|------------------|-------------|---------------|#/38t2##/38t1#

Outro:

#39t1#Guitarra 1:
#39t2#|----------------|------------------|------------------|---------------------|
|----------------|------------------|------------------|---------------------|
|--------------7-|---7--7-7--7--7-9-|---9--9-9-9--7--5-|---5--5-5-5----5-4-2-|
|--5--5--5-5-5-7-|---7--7-7--7--7-9-|---9--9-9-9--7--5-|---5--5-5-5----5-4-2-|
|--5--5--5-5-5-5-|---5--5-5--5--5-7-|---7--7-7-7--5--3-|---3--3-3-3----3-2-0-|
|--3--3--3-3-3---|------------------|------------------|---------------------|#/39t2##/39t1#

#40t1#Guitarra 2:         
#40t2#|----------------|------------------|------------------|---------------------|
|----------------|------------------|------------------|---------------------|
|-12-------------|-(12)-------------|------------------|------------11-------|
|-12-------------|-(12)-------------|-(12)-------------|-(12)----------------|
|----------------|------------------|------------------|---------------------|
|----------------|------------------|------------------|---------------------|#/40t2##/40t1#

#41t1#Guitarra 1:
#41t2#|----------------|------------------|------------------|-------------------|--------------*|
|----------------|------------------|------------------|-------------------|--------------*|
|--------------7-|---7--7-7--7--7-9-|---9--9-9-9--7--5-|---5--5-5-5--5-4-2-|--------------*|
|--5--5--5-5-5-7-|---7--7-7--7--7-9-|---9--9-9-9--7--5-|---5--5-5-5--5-4-2-|-------5------*|
|--5--5--5-5-5-5-|---5--5-5--5--5-7-|---7--7-7-7--5--3-|---3--3-3-3--3-2-0-|---x-x-5------*|
|--3--3--3-3-3---|------------------|------------------|-------------------|---x-x-3------*|#/41t2##/41t1#

#42t1#Guitarra 2:
#42t2#|----------------|------------------|------------------|-------------------|--------------*|
|----------------|------------------|------------------|-------------------|--------------*|
|-12-------------|-(12)-------------|-(12)-------------|-(12)--------------|--------------*|
|----------------|------------------|------------------|-------------------|-------5------*|
|----------------|------------------|------------------|-------------------|-x---x-5------*|
|----------------|------------------|------------------|-------------------|-x---x-3------*|#/42t2##/42t1#
Composição: Peter PerrettColaboração e revisão: Gabriel SantosGabriel LucasVictor CastilhoGuilherme Yukishigue