Anthem Part II

Blink-182

A
123
X02220
C
123
X32010
C5
134
X355XX
D
123
XX0232
E
123
022100
F
234
133211
G
123
320003
Tom: G
Intro:

Riff 1

#1t1##1t2#E|-3----3----1----1----0----0----1----1----------|
B|---1----1----1----1----1----1----1----1--------|
G|-----------------------------------------------|
D|-----------------------------------------------| (x4)
A|-----------------------------------------------|
E|-----------------------------------------------|#/1t2##/1t1#

#2t1#Riff 2
#2t2#|--------------------------------------------------|
|--------------------------------------------------|
|--------------------------------------------------|
|-----0p3-----2-----0p3-----2-----0p3-----2-----0-0| (x4)
|-3-3-----3-3---3-3-----3-3---3-3-----3-3---3-3----|
|--------------------------------------------------|#/2t2##/2t1#

#3t1#Riff 3
#3t2#|------------|      |------------------|
|------------|      |------------------|
|-9-10-9-5-7-|      |-9-10-5~~---------|
|-x-x--x-x-x-| (x3) |-x--x-x-----------| (x1)
|-7-8--7-3-5-|      |-7--8-3~~---------|
|------------|      |------------------|#/3t2##/3t1#


C5
Everything has fallen to pieces
                              E
Earth is dying, help me Jesus         :
C5                 A        F          :
We need guidance, we've been misled   :----- ABAFADO
C                  A       F          :
Young and hostile but not stupid      :

#4t1##4t2#-> (Baixo)#/4t2##/4t1#

#5t1##5t2#|-----------------|
|-----------------|
|-----------------|
|-----------------|
|---7-----5-----3-|
|-5---5-3---3-1---|#/5t2##/5t1#

C5
Corporate leaders, politicians
                                    E
kids can't vote, adults elect them       :
C5                  A          F          :
Laws that rule the school and workplace  :----- ABAFADO
C 5                  A         F          :
Signs that caution sixteen's unsafe      :


#6t1##6t2#->(Baixo) Novamente#/6t2##/6t1#


E              F  C5       G
We really need to see this through
E           F      C5  G
we never wanted to be abused         :
A      F (na 8ª casa) C5       G      :
We'll never give up, it's no use     :----- ABAFADO, mas toca solto no ultimo FÁ
A                F( na 8ª casa)      :
If we're fucked up, you're to blame  :


Repete o Riff 3


C5
Let this train-wreck burn more slowly
                                E
kids are victims in this story            :
C5                    A            F       :
Drown our youth with usless warnings      :----- ABAFADO
C5                     A          F        :
Teenage rules, they're fucked and boring  :

#7t1##7t2#-> (Baixo)#/7t2##/7t1#

E              F  C5        G
We really need to see this through
E           F      C5  G
we never wanted to be abused
A            F (na 8ªcasa) C5    G
We'll never give up, it's no u se
A            F (na 8ªcasa)
If we're fucked up you're to blame


Baixo - C5 A F
Everything has fallen to pieces,
Baixo - C5 A F
Everything has fallen to pieces,
C5
Everything has fallen to pieces,
C5
Everything has fallen to ...

E              F  C5        G
We really need to see this through
E           F      C5  G
we never wanted to be abused
A           F (na 8ªcasa)  C5   G
We'll never give up, it's no use
A                 F (na 8ªcasa)
If we're fucked up you're to blame


#8t1##8t2#|------------------------------------------------|
|------------------------------------------------|
|------------------------------------------------|
|-----2p3-3-2------2p3-3-2------2p3-3-2------0-0-| (x2)
|-3-3----------3-3----------3-3----------3-3-----|
|------------------------------------------------|#/8t2##/8t1#

#9t1#   C5               D                A               F
#9t2#|------------------------------------------------|
|------------------------------------------------|
|------------------------------------------------|     (2x + Riff 1)
|-----2p3-3-2------2p3-3-2------2p3-3-2------0-0-|
|-3-3----------3-3----------3-3----------3-3-----|
|------------------------------------------------|#/9t2##/9t1#
Composição: Barker / Feldmann / Hoppus / Mark Hoppus / Skiba / Tom DeLongeColaboração e revisão: Gabriel GalickiAndre BragaLucas Fogarolli