busca

Anthem Part II

Blink-182

Tom: C
Intro:

Riff 1

E|-3----3----1----1----0----0----1----1----------|
B|---1----1----1----1----1----1----1----1--------|
G|-----------------------------------------------|
D|-----------------------------------------------| (x4)
A|-----------------------------------------------|
E|-----------------------------------------------|

Riff 2
|--------------------------------------------------|
|--------------------------------------------------|
|--------------------------------------------------|
|-----0p3-----2-----0p3-----2-----0p3-----2-----0-0| (x4)
|-3-3-----3-3---3-3-----3-3---3-3-----3-3---3-3----|
|--------------------------------------------------|

Riff 3
|------------|      |------------------|
|------------|      |------------------|
|-9-10-9-5-7-|      |-9-10-5~~---------|
|-x-x--x-x-x-| (x3) |-x--x-x-----------| (x1)
|-7-8--7-3-5-|      |-7--8-3~~---------|
|------------|      |------------------|


C5
Everything has fallen to pieces
                              E
Earth is dying, help me Jesus         :
C5                 A        F          :
We need guidance, we've been misled   :----- ABAFADO
C                  A       F          :
Young and hostile but not stupid      :

-> (Baixo)

|-----------------|
|-----------------|
|-----------------|
|-----------------|
|---7-----5-----3-|
|-5---5-3---3-1---|

C5
Corporate leaders, politicians
                                    E
kids can't vote, adults elect them       :
C5                  A          F          :
Laws that rule the school and workplace  :----- ABAFADO
C 5                  A         F          :
Signs that caution sixteen's unsafe      :


->(Baixo) Novamente


E              F  C5       G
We really need to see this through
E           F      C5  G
we never wanted to be abused         :
A      F (na 8ª casa) C5       G      :
We'll never give up, it's no use     :----- ABAFADO, mas toca solto no ultimo FÁ
A                F( na 8ª casa)      :
If we're fucked up, you're to blame  :


Repete o Riff 3


C5
Let this train-wreck burn more slowly
                                E
kids are victims in this story            :
C5                    A            F       :
Drown our youth with usless warnings      :----- ABAFADO
C5                     A          F        :
Teenage rules, they're fucked and boring  :

-> (Baixo)

E              F  C5        G
We really need to see this through
E           F      C5  G
we never wanted to be abused
A            F (na 8ªcasa) C5    G
We'll never give up, it's no u se
A            F (na 8ªcasa)
If we're fucked up you're to blame


Baixo - C5 A F
Everything has fallen to pieces,
Baixo - C5 A F
Everything has fallen to pieces,
C5
Everything has fallen to pieces,
C5
Everything has fallen to ...

E              F  C5        G
We really need to see this through
E           F      C5  G
we never wanted to be abused
A           F (na 8ªcasa)  C5   G
We'll never give up, it's no use
A                 F (na 8ªcasa)
If we're fucked up you're to blame


|------------------------------------------------|
|------------------------------------------------|
|------------------------------------------------|
|-----2p3-3-2------2p3-3-2------2p3-3-2------0-0-| (x2)
|-3-3----------3-3----------3-3----------3-3-----|
|------------------------------------------------|

   C5               D                A               F
|------------------------------------------------|
|------------------------------------------------|
|------------------------------------------------|     (2x + Riff 1)
|-----2p3-3-2------2p3-3-2------2p3-3-2------0-0-|
|-3-3----------3-3----------3-3----------3-3-----|
|------------------------------------------------|

Clipes

Cifra Club Pro

Aproveite o Cifra Club com benefícios exclusivos e sem anúncios
7 dias grátis
Cifra Club Pro
Aproveite o Cifra Club com benefícios exclusivos e sem anúncios
7 dias grátis