busca

Anthem Part II

blink-182

entra junto com a bateria

|-------------------------------------------
|-------------------------------------------
|---333--------333------------333-----------
|-------------------------------------------
(intro)
|-------------------------------------------
|-------------------------------------------
|---333333---555555-------------------------
|------------------5555555------------------

|-------------------------------------------
|-------------------------------------------
|--3333333---555555----------88888888------- 6x
|------------------5555555------------------

(verso)
|-------------------------------------------
|-------------------------------------------
|--33333333333333333------------------------ 4x
|-------------------555555555-----1111111111

solo do baixo
|-----------9-------------7--------------5--
|---7---------7----5---------5----3---------
|-------------------------------------------
|-------------------------------------------

|-------------------------------------------
|-------------------------------------------
|--33333333333333333------------------------ 4x
|-------------------5555555555----1111111111

solo do baixo
|---------9-------------7--------------5----
|--7--------7---5---------5----3------------
|-------------------------------------------
|-------------------------------------------

(refrão)
|-------------------------------------------
|-------------------------------------------
|--------------------33333333--------------- 3x
|-000000---1111111-------------33333333-----

|-------------------------------------------
|-------------------------------------------
|-------------------------------------------
|------555555555--------1-------------------


(intro) 2x
(verso) 4x
(solo)  
(refrão)

|-------------------------------------------
|-------------------------------------------
|--333333333333333333-----------------------
|--------------------55555555---111111111111

(refrão)
(intro)  4x

eh soh facil neh!!!

Clipes