busca

Anthem Part II

Blink-182

Blink-182- Anthem Part 2.
 Tabbed by Adam Lenning *.
  
        Anthem Part 2
pre-intro 
G|---------------------------------------------------------------------------| 
D|---------------------------------------------------------------------------| 
A|5-5-5-5-5-5-5---------8-8-8-8----------------------------------------------| 
E|--------------5-5-5-5------------------------------------------------------| 

intro/play 5x 
G|---------------------------------------------------------------------------| 
D|---------------------------------------------------------------------------| 
A|3-3-3-3-5-5-5-5---------8-8-8-8--------------------------------------------| 
E|----------------5-5-5-5----------------------------------------------------| 

verse/play 6x/pause/play 4x 
G|---------------------------------------------------------------------------| 
D|---------------------------------------------------------------------------| 
A|3-3-3-3-3-3-3-3-3-3-3-3-5-5-5-5-5-5-5-5------------------------------------| 
E|----------------------------------------8-8-8-8-8-8-8-8--------------------| 

chorus/play 4x 
G|---------------------------------------------------------------------------| 
D|---------------------------------------------------------------------------| 
A|3-3-3-3---------3-3-3-3-5-5-5-5--------------------------------------------| 
E|--------1-1-1-1------------------------------------------------------------| 

verse/play 6x 
G|---------------------------------------------------------------------------| 
D|---------------------------------------------------------------------------| 
A|3-3-3-3-3-3-3-3-3-3-3-3-5-5-5-5-5-5-5-5------------------------------------| 
E|----------------------------------------8-8-8-8-8-8-8-8--------------------| 

chorus/play 4x 
G|---------------------------------------------------------------------------| 
D|---------------------------------------------------------------------------| 
A|3-3-3-3---------3-3-3-3-5-5-5-5--------------------------------------------| 
E|--------1-1-1-1------------------------------------------------------------| 

bass guitar solo/play 4x 
G|---------------------------------------------------------------------------| 
D|---------------------------------------------------------------------------| 
A|3-3-3-3-3-3-3-3-3-3-3-3-----------------1-1-1-1-1-1-1-1--------------------| 
E|------------------------5-5-5-5-5-5-5-5------------------------------------| 

chorus/play 4x/repeat verse 4x 
G|---------------------------------------------------------------------------| 
D|---------------------------------------------------------------------------| 
A|3-3-3-3---------3-3-3-3-5-5-5-5--------------------------------------------| 
E|--------1-1-1-1------------------------------------------------------------| 


 
:: Ultimate Guitar Archive :: 
http://* 



Clipes