busca

Asthenia

blink-182

Tom: D
Intro:

E|-------------------------------------------------------------|
B|-----------7--------------------7----------------------------|
G|-----7-------------7-----6-7------------7-----6-7------------|
D|--------0-------------0-------0------------0-----------------|
A|-------------------------------------------------------------|
E|-------------------------------------------------------------|


Verso:

E|-------------------------------------------------------------|
B|-------------------------------------------------------------|
G|-7-7-7-7-7-7----6-6-6-6-6-6----7-7-7-7-7-7----6-6-6-6-6-6----|
D|-7-7-7-7-7-7----7-7-7-7-7-7----7-7-7-7-7-7----7-7-7-7-7-7----|
A|-5-5-5-5-5-5----4-4-4-4-4-4----x-x-x-x-x-x----4-4-4-4-4-4----|
E|-------------------------------7-7-7-7-7-7-------------------|

Last night it came as a picture
With a good reason, a warning sign
This place is void of all passion
If you can imagine it's easy if you try
Believe me I failed this effort
I wrote a reminder this wasn't a vision
This time where are you Houston
Is somebody out there will somebody listen



Riff Pré-Refrão: 2X

E|---------------------|---------------------|----------------------|
B|---------------------|---------------------|----------------------|
G|-7-7--6-6--7-7--9-9--|-7-7--6-6--7-7--9-9--|-7-7--6-6--7-7--9-9---|
D|-x-x--x-x--x-x--x-x--|-x-x--x-x--x-x--x-x--|-x-x--x-x--x-x--x-x---|
A|-5-5--4-4--5-5--7-7--|-5-5--4-4--5-5--7-7--|-5-5--4-4--5-5--7-7---|
E|---------------------|---------------------|----------------------|

E|---------------------|---------------------|----------------------|
B|---------------------|---------------------|----------------------|
G|-7-7--6-6--7-7--9-9--|-7-7--6-6--7-7--9-9--|-7-7--6-6-------------|
D|-x-x--x-x--x-x--x-x--|-x-x--x-x--x-x--x-x--|-x-x--x-x-------------|
A|-5-5--4-4--5-5--7-7--|-5-5--4-4--5-5--7-7--|-5-5--4-4---5-5-5-5---|
E|---------------------|---------------------|------------3-3-3-3---|
                                                          P.M.....



Refrão:

E|---------------------------------------------------------|
B|---------------------------------------------------------|
G|---------------------------------------------------------|
D|---------------------------------------------------------|
A|-----5-5------5-5------5------5-5-----4-4------4---------|
E|-2-2------3-3------3-3----5-5-----5-5------5-5-----------|

E|---------------------------------------------------------|
B|---------------------------------------------------------|
G|---------------------------------------------------------|
D|---------------------------------------------------------|
A|-----5-5------5-5------5------5-5-----4-4-------4--------|
E|-2-2------3-3------3-3----5-5-----5-5------5-5--5--------|

Should I go back should I go back should I
I feel alone and tired
Should I go back should I go back should I
I hope I won't forget you



Intro:

E|-------------------------------------------------------------|
B|-----------7--------------------7----------------------------|
G|-----7-------------7-----6-7------------7-----6-7------------|
D|--------0-------------0-------0------------0-----------------|
A|-------------------------------------------------------------|
E|-------------------------------------------------------------|



Verso:

E|-------------------------------------------------------------|
B|-------------------------------------------------------------|
G|-7-7-7-7-7-7----6-6-6-6-6-6----7-7-7-7-7-7----6-6-6-6-6-6----|
D|-7-7-7-7-7-7----7-7-7-7-7-7----7-7-7-7-7-7----7-7-7-7-7-7----|
A|-5-5-5-5-5-5----4-4-4-4-4-4----x-x-x-x-x-x----4-4-4-4-4-4----|
E|-------------------------------7-7-7-7-7-7-------------------|

My head is made up of memories
Most of them useless delusions
This room is bored of rehearsal
And sick of the boundaries
I miss you so much



Riff Pré-Refrão: 2X

E|---------------------|---------------------|----------------------|
B|---------------------|---------------------|----------------------|
G|-7-7--6-6--7-7--9-9--|-7-7--6-6--7-7--9-9--|-7-7--6-6--7-7--9-9---|
D|-x-x--x-x--x-x--x-x--|-x-x--x-x--x-x--x-x--|-x-x--x-x--x-x--x-x---|
A|-5-5--4-4--5-5--7-7--|-5-5--4-4--5-5--7-7--|-5-5--4-4--5-5--7-7---|
E|---------------------|---------------------|----------------------|

E|---------------------|---------------------|----------------------|
B|---------------------|---------------------|----------------------|
G|-7-7--6-6--7-7--9-9--|-7-7--6-6--7-7--9-9--|-7-7--6-6-------------|
D|-x-x--x-x--x-x--x-x--|-x-x--x-x--x-x--x-x--|-x-x--x-x-------------|
A|-5-5--4-4--5-5--7-7--|-5-5--4-4--5-5--7-7--|-5-5--4-4---5-5-5-5---|
E|---------------------|---------------------|------------3-3-3-3---|
                                                          P.M.....


Refrão:

E|---------------------------------------------------------|
B|---------------------------------------------------------|
G|---------------------------------------------------------|
D|---------------------------------------------------------|
A|-----5-5------5-5------5------5-5-----4-4------4---------|
E|-2-2------3-3------3-3----5-5-----5-5------5-5-----------|

E|---------------------------------------------------------|
B|---------------------------------------------------------|
G|---------------------------------------------------------|
D|---------------------------------------------------------|
A|-----5-5------5-5------5------5-5-----4-4-------4--------|
E|-2-2------3-3------3-3----5-5-----5-5------5-5--5--------|

Should I go back should I go back should I
I feel alone and tired
Should I go back should I go back should I
I hope I won't forget you



Interlúdio 01:

E|----------------------------------------------------------------|
B|----------------------------------------------------------------|
G|-7-------------7---------------11-------9--------------7--------|
D|-x-(14x)-------x-(14x)---------X-(10x)--X-(4x)---------X-(14x)--|
A|-5-------------5---------------9--------7--------------5--------|
E|--------PAUSE|----------PAUSE|--------------------PAUSE|-----------|



Interlúdio 02:

E|--------------------------------------------------------|
B|--------------------------------------------------------|
G|--------------------------------------------------------|
D|-7-7--7-7--7-4--4-4--4s5--5-5--5s2--2-2--2-2--2-2-------|
A|-5-5--5-5--5--------------------------------------------|
E|--------------------------------------------------------|
   P.M........

E|----------------------------------------------------------------|
B|----------------------------------------------------------------|
G|----------------------------------------------------------------|
D|-7-7--7-7--x-7--7-7--7-4--4-4--4s5--5-5--5s2--2-2--2-2--2-2-----|
A|-5-5--5-5--x-5--5-5--5------------------------------------------|
E|----------------------------------------------------------------|
   P.M..................

E|-------------------------------------------------------------|
B|-------------------------------------------------------------|
G|-------------------------------------------------------------|
D|-7-7-7--x-7--7-7--7-4--4-4--4s5--5-5--5s2--2-2--2-2--2-2-----|
A|-5-5-5--x-5--5-5--5------------------------------------------|
E|-------------------------------------------------------------|
   P.M...............

E|----------------------------------------------------------------|
B|----------------------------------------------------------------|
G|----------------------------------------------------------------|
D|-7-7--7-7--x-7--7-7--7-4--4-4--4s5--5-5--5s2--2-2--2-2--2-2-----|
A|-5-5--5-5--x-5--5-5--5------------------------------------------|
E|----------------------------------------------------------------|
   P.M..................

E|--------------------------------------------------------|
B|--------------------------------------------------------|
G|--------------------------------------------------------|
D|-7-7-x--7-7~~~~~~~~~~~~~~~~~~~~-------------------------|
A|-5-5-x--5-5~~~~~~~~~~~~~~~~~~~~-------------------------|
E|--------------------------------------------------------|
   P.M.....



Refrão: 4x

E|---------------------------------------------------------|
B|---------------------------------------------------------|
G|---------------------------------------------------------|
D|---------------------------------------------------------|
A|-----5-5------5-5------5------5-5-----4-4------4---------|
E|-2-2------3-3------3-3----5-5-----5-5------5-5-----------|

E|---------------------------------------------------------|
B|---------------------------------------------------------|
G|---------------------------------------------------------|
D|---------------------------------------------------------|
A|-----5-5------5-5------5------5-5-----4-4-------4--------|
E|-2-2------3-3------3-3----5-5-----5-5------5-5--5--------|

Should I go back should I go back should I
I feel alone and tired
Should I go back should I go back should I
I hope I won't forget you


Final: 

E|---------------------|---------------------|----------------------|
B|---------------------|---------------------|----------------------|
G|-7-7--6-6--7-7--9-9--|-7-7--6-6--7-7--9-9--|-7-7--6-6--7-7--9-9---|
D|-x-x--x-x--x-x--x-x--|-x-x--x-x--x-x--x-x--|-x-x--x-x--x-x--x-x---|
A|-5-5--4-4--5-5--7-7--|-5-5--4-4--5-5--7-7--|-5-5--4-4--5-5--7-7---|
E|---------------------|---------------------|----------------------|

E|---------------------|---------------------|----------------------|
B|---------------------|---------------------|----------------------|
G|-7-7--6-6--7-7--9-9--|-7-7--6-6--7-7--9-9--|-7-7--6-6-------------|
D|-x-x--x-x--x-x--x-x--|-x-x--x-x--x-x--x-x--|-x-x--x-x-------------|
A|-5-5--4-4--5-5--7-7--|-5-5--4-4--5-5--7-7--|-5-5--4-4---5-5-5-5---|
E|---------------------|---------------------|------------3-3-3-3---|
                                                          P.M.....

E|---------------------|---------------------|----------------------|
B|---------------------|---------------------|----------------------|
G|-7-7--6-6--7-7--9-9--|-7-7--6-6--7-7--9-9--|-7-7--6-6--7-7--9-9---|
D|-x-x--x-x--x-x--x-x--|-x-x--x-x--x-x--x-x--|-x-x--x-x--x-x--x-x---|
A|-5-5--4-4--5-5--7-7--|-5-5--4-4--5-5--7-7--|-5-5--4-4--5-5--7-7---|
E|---------------------|---------------------|----------------------|

E|---------------------|---------------------|
B|---------------------|---------------------|
G|-7-7--6-6--7-7--7s9--|---------------------|
D|-x-x--x-x--x-x--x-x--|---------------------|
A|-5-5--4-4--5-5--5s7--|-5~~~~~~~~-----------|
E|---------------------|-3~~~~~~~~-----------|

Clipes