Asthenia

Blink-182

Tom: G
Intro:

#1t1##1t2#E|-------------------------------------------------------------|
B|-----------7--------------------7----------------------------|
G|-----7-------------7-----6-7------------7-----6-7------------|
D|--------0-------------0-------0------------0-----------------|
A|-------------------------------------------------------------|
E|-------------------------------------------------------------|#/1t2##/1t1#


Verso:

#2t1##2t2#E|-------------------------------------------------------------|
B|-------------------------------------------------------------|
G|-7-7-7-7-7-7----6-6-6-6-6-6----7-7-7-7-7-7----6-6-6-6-6-6----|
D|-7-7-7-7-7-7----7-7-7-7-7-7----7-7-7-7-7-7----7-7-7-7-7-7----|
A|-5-5-5-5-5-5----4-4-4-4-4-4----x-x-x-x-x-x----4-4-4-4-4-4----|
E|-------------------------------7-7-7-7-7-7-------------------|#/2t2##/2t1#

Last night it came as a picture
With a good reason, a warning sign
This place is void of all passion
If you can imagine it's easy if you try
Believe me I failed this effort
I wrote a reminder this wasn't a vision
This time where are you Houston
Is somebody out there will somebody listen



Riff Pré-Refrão: 2X

#3t1##3t2#E|---------------------|---------------------|----------------------|
B|---------------------|---------------------|----------------------|
G|-7-7--6-6--7-7--9-9--|-7-7--6-6--7-7--9-9--|-7-7--6-6--7-7--9-9---|
D|-x-x--x-x--x-x--x-x--|-x-x--x-x--x-x--x-x--|-x-x--x-x--x-x--x-x---|
A|-5-5--4-4--5-5--7-7--|-5-5--4-4--5-5--7-7--|-5-5--4-4--5-5--7-7---|
E|---------------------|---------------------|----------------------|#/3t2##/3t1#

#4t1##4t2#E|---------------------|---------------------|----------------------|
B|---------------------|---------------------|----------------------|
G|-7-7--6-6--7-7--9-9--|-7-7--6-6--7-7--9-9--|-7-7--6-6-------------|
D|-x-x--x-x--x-x--x-x--|-x-x--x-x--x-x--x-x--|-x-x--x-x-------------|
A|-5-5--4-4--5-5--7-7--|-5-5--4-4--5-5--7-7--|-5-5--4-4---5-5-5-5---|
E|---------------------|---------------------|------------3-3-3-3---|
                                                          P.M.....#/4t2##/4t1#



Refrão:

#5t1##5t2#E|---------------------------------------------------------|
B|---------------------------------------------------------|
G|---------------------------------------------------------|
D|---------------------------------------------------------|
A|-----5-5------5-5------5------5-5-----4-4------4---------|
E|-2-2------3-3------3-3----5-5-----5-5------5-5-----------|#/5t2##/5t1#

#6t1##6t2#E|---------------------------------------------------------|
B|---------------------------------------------------------|
G|---------------------------------------------------------|
D|---------------------------------------------------------|
A|-----5-5------5-5------5------5-5-----4-4-------4--------|
E|-2-2------3-3------3-3----5-5-----5-5------5-5--5--------|#/6t2##/6t1#

Should I go back should I go back should I
I feel alone and tired
Should I go back should I go back should I
I hope I won't forget you



Intro:

#7t1##7t2#E|-------------------------------------------------------------|
B|-----------7--------------------7----------------------------|
G|-----7-------------7-----6-7------------7-----6-7------------|
D|--------0-------------0-------0------------0-----------------|
A|-------------------------------------------------------------|
E|-------------------------------------------------------------|#/7t2##/7t1#



Verso:

#8t1##8t2#E|-------------------------------------------------------------|
B|-------------------------------------------------------------|
G|-7-7-7-7-7-7----6-6-6-6-6-6----7-7-7-7-7-7----6-6-6-6-6-6----|
D|-7-7-7-7-7-7----7-7-7-7-7-7----7-7-7-7-7-7----7-7-7-7-7-7----|
A|-5-5-5-5-5-5----4-4-4-4-4-4----x-x-x-x-x-x----4-4-4-4-4-4----|
E|-------------------------------7-7-7-7-7-7-------------------|#/8t2##/8t1#

My head is made up of memories
Most of them useless delusions
This room is bored of rehearsal
And sick of the boundaries
I miss you so much



Riff Pré-Refrão: 2X

#9t1##9t2#E|---------------------|---------------------|----------------------|
B|---------------------|---------------------|----------------------|
G|-7-7--6-6--7-7--9-9--|-7-7--6-6--7-7--9-9--|-7-7--6-6--7-7--9-9---|
D|-x-x--x-x--x-x--x-x--|-x-x--x-x--x-x--x-x--|-x-x--x-x--x-x--x-x---|
A|-5-5--4-4--5-5--7-7--|-5-5--4-4--5-5--7-7--|-5-5--4-4--5-5--7-7---|
E|---------------------|---------------------|----------------------|#/9t2##/9t1#

#10t1##10t2#E|---------------------|---------------------|----------------------|
B|---------------------|---------------------|----------------------|
G|-7-7--6-6--7-7--9-9--|-7-7--6-6--7-7--9-9--|-7-7--6-6-------------|
D|-x-x--x-x--x-x--x-x--|-x-x--x-x--x-x--x-x--|-x-x--x-x-------------|
A|-5-5--4-4--5-5--7-7--|-5-5--4-4--5-5--7-7--|-5-5--4-4---5-5-5-5---|
E|---------------------|---------------------|------------3-3-3-3---|
                                                          P.M.....#/10t2##/10t1#


Refrão:

#11t1##11t2#E|---------------------------------------------------------|
B|---------------------------------------------------------|
G|---------------------------------------------------------|
D|---------------------------------------------------------|
A|-----5-5------5-5------5------5-5-----4-4------4---------|
E|-2-2------3-3------3-3----5-5-----5-5------5-5-----------|#/11t2##/11t1#

#12t1##12t2#E|---------------------------------------------------------|
B|---------------------------------------------------------|
G|---------------------------------------------------------|
D|---------------------------------------------------------|
A|-----5-5------5-5------5------5-5-----4-4-------4--------|
E|-2-2------3-3------3-3----5-5-----5-5------5-5--5--------|#/12t2##/12t1#

Should I go back should I go back should I
I feel alone and tired
Should I go back should I go back should I
I hope I won't forget you



Interlúdio 01:

#13t1##13t2#E|----------------------------------------------------------------|
B|----------------------------------------------------------------|
G|-7-------------7---------------11-------9--------------7--------|
D|-x-(14x)-------x-(14x)---------X-(10x)--X-(4x)---------X-(14x)--|
A|-5-------------5---------------9--------7--------------5--------|
E|--------PAUSE|----------PAUSE|--------------------PAUSE|-----------|#/13t2##/13t1#



Interlúdio 02:

#14t1##14t2#E|--------------------------------------------------------|
B|--------------------------------------------------------|
G|--------------------------------------------------------|
D|-7-7--7-7--7-4--4-4--4s5--5-5--5s2--2-2--2-2--2-2-------|
A|-5-5--5-5--5--------------------------------------------|
E|--------------------------------------------------------|
   P.M........#/14t2##/14t1#

#15t1##15t2#E|----------------------------------------------------------------|
B|----------------------------------------------------------------|
G|----------------------------------------------------------------|
D|-7-7--7-7--x-7--7-7--7-4--4-4--4s5--5-5--5s2--2-2--2-2--2-2-----|
A|-5-5--5-5--x-5--5-5--5------------------------------------------|
E|----------------------------------------------------------------|
   P.M..................#/15t2##/15t1#

#16t1##16t2#E|-------------------------------------------------------------|
B|-------------------------------------------------------------|
G|-------------------------------------------------------------|
D|-7-7-7--x-7--7-7--7-4--4-4--4s5--5-5--5s2--2-2--2-2--2-2-----|
A|-5-5-5--x-5--5-5--5------------------------------------------|
E|-------------------------------------------------------------|
   P.M...............#/16t2##/16t1#

#17t1##17t2#E|----------------------------------------------------------------|
B|----------------------------------------------------------------|
G|----------------------------------------------------------------|
D|-7-7--7-7--x-7--7-7--7-4--4-4--4s5--5-5--5s2--2-2--2-2--2-2-----|
A|-5-5--5-5--x-5--5-5--5------------------------------------------|
E|----------------------------------------------------------------|
   P.M..................#/17t2##/17t1#

#18t1##18t2#E|--------------------------------------------------------|
B|--------------------------------------------------------|
G|--------------------------------------------------------|
D|-7-7-x--7-7~~~~~~~~~~~~~~~~~~~~-------------------------|
A|-5-5-x--5-5~~~~~~~~~~~~~~~~~~~~-------------------------|
E|--------------------------------------------------------|
   P.M.....#/18t2##/18t1#



Refrão: 4x

#19t1##19t2#E|---------------------------------------------------------|
B|---------------------------------------------------------|
G|---------------------------------------------------------|
D|---------------------------------------------------------|
A|-----5-5------5-5------5------5-5-----4-4------4---------|
E|-2-2------3-3------3-3----5-5-----5-5------5-5-----------|#/19t2##/19t1#

#20t1##20t2#E|---------------------------------------------------------|
B|---------------------------------------------------------|
G|---------------------------------------------------------|
D|---------------------------------------------------------|
A|-----5-5------5-5------5------5-5-----4-4-------4--------|
E|-2-2------3-3------3-3----5-5-----5-5------5-5--5--------|#/20t2##/20t1#

Should I go back should I go back should I
I feel alone and tired
Should I go back should I go back should I
I hope I won't forget you


Final: 

#21t1##21t2#E|---------------------|---------------------|----------------------|
B|---------------------|---------------------|----------------------|
G|-7-7--6-6--7-7--9-9--|-7-7--6-6--7-7--9-9--|-7-7--6-6--7-7--9-9---|
D|-x-x--x-x--x-x--x-x--|-x-x--x-x--x-x--x-x--|-x-x--x-x--x-x--x-x---|
A|-5-5--4-4--5-5--7-7--|-5-5--4-4--5-5--7-7--|-5-5--4-4--5-5--7-7---|
E|---------------------|---------------------|----------------------|#/21t2##/21t1#

#22t1##22t2#E|---------------------|---------------------|----------------------|
B|---------------------|---------------------|----------------------|
G|-7-7--6-6--7-7--9-9--|-7-7--6-6--7-7--9-9--|-7-7--6-6-------------|
D|-x-x--x-x--x-x--x-x--|-x-x--x-x--x-x--x-x--|-x-x--x-x-------------|
A|-5-5--4-4--5-5--7-7--|-5-5--4-4--5-5--7-7--|-5-5--4-4---5-5-5-5---|
E|---------------------|---------------------|------------3-3-3-3---|
                                                          P.M.....#/22t2##/22t1#

#23t1##23t2#E|---------------------|---------------------|----------------------|
B|---------------------|---------------------|----------------------|
G|-7-7--6-6--7-7--9-9--|-7-7--6-6--7-7--9-9--|-7-7--6-6--7-7--9-9---|
D|-x-x--x-x--x-x--x-x--|-x-x--x-x--x-x--x-x--|-x-x--x-x--x-x--x-x---|
A|-5-5--4-4--5-5--7-7--|-5-5--4-4--5-5--7-7--|-5-5--4-4--5-5--7-7---|
E|---------------------|---------------------|----------------------|#/23t2##/23t1#

#24t1##24t2#E|---------------------|---------------------|
B|---------------------|---------------------|
G|-7-7--6-6--7-7--7s9--|---------------------|
D|-x-x--x-x--x-x--x-x--|---------------------|
A|-5-5--4-4--5-5--5s7--|-5~~~~~~~~-----------|
E|---------------------|-3~~~~~~~~-----------|#/24t2##/24t1#
Composição: Colaboração e revisão: Renan Luizpaulo pereiraJoão Barreto