Ben Wah Balls

Blink-182

Tom: G
#1t1#INTRO:  TURN YOUR PICK-UP SWITCH UP ONE
#1t2#e|-----------------------------------------------------------
B|-----------------------------------------------------------
G|-----------------------------------------------------------
D|-444444-555555-444444-xx7xx7-444444-xx7xx7-----------------
A|-555555-555555-555555-xx7xx7-555555-xx7xx7-----------------
E|--------333333--------xx5xx5--------xx5xx5-----------------#/1t2##/1t1#

#2t1#INTRO cont.
#2t2#e|-151515-141414------------141414-151515------------151515-
B|---------------1515151515---------------1515151515--------#/2t2##/2t1#

#3t1##3t2#e|-141414------------141414-151515-14-14-15-14--------------
B|--------1515151515---------------------------15-----------#/3t2##/3t1#

#4t1##4t2#G|-777777--------777777---------777777-------------------
D|-777777-555555-777777-444-222-777777-444-222-----555555
A|-555555-555555-555555---------555555-------------555555
E|--------333333--------------------------------PM 333333#/4t2##/4t1#

#5t1##5t2#e|-----------------------------------------------------------
B|-----------------------------------------------------------
G|-----------------------------------------------------------
D|---4---7-5----4---5-4----2---5s4s2p0----5---5s4s2p0--------
A|-5---5------2---2------0---0-------------------------------
E|--------------------------------------3---3----------------#/5t2##/5t1#

#6t1#VERSE:  SKA UPSTROKE
#6t2#e|-5--7--5--3--
B|-7--7--5--3--
G|-7--8--6--4--
D|-7--9--7--5--
A|-5--9--7--5--
E|----7--5--3--#/6t2##/6t1#

#7t1#STRUM THESE POWER CHORDS
#7t2#G|7-4-------------------
D|7-4-7-5---------------
A|5-2-7-5---------------
E|----5-3---------------#/7t2##/7t1#

#8t1#BREAK RIFF:
#8t2#G|-7-6-------7s9-6-7
D|-0---7-5-4--------
A|------------------
E|------------------#/8t2##/8t1#

#9t1#CLEAN ELECTRIC PART:
#9t2#G|-0-----0----------------2---0----------0-------------------
D|---4-2---4-2-0----4--------------4-------4----2-----5-4-0-2
A|----------------5---5-5---5----2---2-2------0---0-0--------
E|-----------------------------------------------------------#/9t2##/9t1#

#10t1#CONT.
#10t2#G|-----------------------------------------------------------
D|---5-----5-4-2-0-------------------------------------------
A|-----------------------------------------------------------
E|-3---3-3---------------------------------------------------#/10t2##/10t1#

WHEN I WAS A LITTLE GIRL...   (CLEAN SLOW SKA UPSTROKE)
THEN PLAY THE INTRO AGAIN AND YOU'RE DONE.
Composição: Colaboração e revisão: Lucas Rezende