busca

Ben Wah Balls

blink-182

Tom: G
INTRO:  TURN YOUR PICK-UP SWITCH UP ONE
e|-----------------------------------------------------------
B|-----------------------------------------------------------
G|-----------------------------------------------------------
D|-444444-555555-444444-xx7xx7-444444-xx7xx7-----------------
A|-555555-555555-555555-xx7xx7-555555-xx7xx7-----------------
E|--------333333--------xx5xx5--------xx5xx5-----------------

INTRO cont.
e|-151515-141414------------141414-151515------------151515-
B|---------------1515151515---------------1515151515--------

e|-141414------------141414-151515-14-14-15-14--------------
B|--------1515151515---------------------------15-----------

G|-777777--------777777---------777777-------------------
D|-777777-555555-777777-444-222-777777-444-222-----555555
A|-555555-555555-555555---------555555-------------555555
E|--------333333--------------------------------PM 333333

e|-----------------------------------------------------------
B|-----------------------------------------------------------
G|-----------------------------------------------------------
D|---4---7-5----4---5-4----2---5s4s2p0----5---5s4s2p0--------
A|-5---5------2---2------0---0-------------------------------
E|--------------------------------------3---3----------------

VERSE:  SKA UPSTROKE
e|-5--7--5--3--
B|-7--7--5--3--
G|-7--8--6--4--
D|-7--9--7--5--
A|-5--9--7--5--
E|----7--5--3--

STRUM THESE POWER CHORDS
G|7-4-------------------
D|7-4-7-5---------------
A|5-2-7-5---------------
E|----5-3---------------

BREAK RIFF:
G|-7-6-------7s9-6-7
D|-0---7-5-4--------
A|------------------
E|------------------

CLEAN ELECTRIC PART:
G|-0-----0----------------2---0----------0-------------------
D|---4-2---4-2-0----4--------------4-------4----2-----5-4-0-2
A|----------------5---5-5---5----2---2-2------0---0-0--------
E|-----------------------------------------------------------

CONT.
G|-----------------------------------------------------------
D|---5-----5-4-2-0-------------------------------------------
A|-----------------------------------------------------------
E|-3---3-3---------------------------------------------------

WHEN I WAS A LITTLE GIRL...   (CLEAN SLOW SKA UPSTROKE)
THEN PLAY THE INTRO AGAIN AND YOU'RE DONE.

Clipes