Boring

Blink-182

Tom: G
Intro:

#1t1##1t2#E|---------------------|---------------------|
B|---------------------|---------------------|
G|---------------------|---------------------|  
D|---------------------|---------------------|  8x
A|-0-4--0-0--5-0--4p0--|---2-------5----2p0--|
E|---------------------|-0----0-0----0-------|#/1t2##/1t1#



Verso:

#2t1##2t2#E|-------------------|-----------------------|
B|-------------------|-----------------------|
G|------2---------2--|----------------7------|  
D|------2---------2--|------4---------7------|  
A|-0-0--0----4-4--4--|------4----5-5--5------|
E|-------------------|-2-2--2----------------|
                                                2x#/2t2##/2t1#
#3t1##3t2#E|-------------------|-----------------------|
B|-------------------|-----------------------|
G|----------------2--|-----------7-----------|  
D|------2---------2--|-----------7-----------|  
A|------2----4-4--4--|------2-0--5-----------|
E|-0-0--0------------|-0-0-------------------|#/3t2##/3t1#

You don't need nothin' 
And I know that you won't even try 
Don't wait for me to help you 
Too late for any of my advice



Refrão:

#4t1##4t2#E|-----------------------------------|
B|-----------------------------------|
G|-------6-6-------7-7--9-9-9--------|  
D|--7-7--6-6--6-6--7-7--9-9-9--------|   4x
A|--7-7--4-4--6-6--5-5--7-7-7--------|
E|--5-5-------4-4--------------------|#/4t2##/4t1#

No trust 
All I got is lies 
Boring 
Alright


Intro:

#5t1##5t2#E|---------------------|---------------------|
B|---------------------|---------------------|
G|---------------------|---------------------|  
D|---------------------|---------------------|  4x
A|-0-4--0-0--5-0--4p0--|---2-------5----2p0--|
E|---------------------|-0----0-0----0-------|#/5t2##/5t1#


Verso 2:

#6t1##6t2#E|-------------------|-----------------------|
B|-------------------|-----------------------|
G|------2---------2--|----------------7------|  
D|------2---------2--|------4---------7------|  
A|-0-0--0----4-4--4--|------4----5-5--5------|
E|-------------------|-2-2--2----------------|
                                                2x#/6t2##/6t1#
#7t1##7t2#E|-------------------|-----------------------|
B|-------------------|-----------------------|
G|----------------2--|-----------7-----------|  
D|------2---------2--|-----------7-----------|  
A|------2----4-4--4--|------2-0--5-----------|
E|-0-0--0------------|-0-0-------------------|#/7t2##/7t1#

Misplaced your values 
Forgot being the importance of being right 
Don't sit there and act humble 
I've heard your story a thousand times


Refrão:

#8t1##8t2#E|-----------------------------------|
B|-----------------------------------|
G|-------6-6-------7-7--9-9-9--------|  
D|--7-7--6-6--6-6--7-7--9-9-9--------|   4x
A|--7-7--4-4--6-6--5-5--7-7-7--------|
E|--5-5-------4-4--------------------|#/8t2##/8t1#

No trust 
All I got is lies 
Boring 
Alright


Solo:

#9t1##9t2#E|---------------------------------------|-------------------------------------|
B|---------------------------------------|-------------------------------------|
G|---------------------------------------|-------------------------------------|
D|--7-7-7--6-6-6-------------------------|--------6-6-6------------------------|  4X
A|----------------7-7-7-7-7-7-7-7-7-7----|-5-5-5---------7-7-7-0-0-0-0-0-0-0---|
E|---------------------------------------|-------------------------------------|#/9t2##/9t1#


#10t1##10t2#E|-----------------------------------------------------|
B|-----------------------------------------------------|
G|-2-2---------------------6-6-------7-7--9-9----------|  
D|-2-2-----x-x-x-x----7-7--6-6--6-6--7-7--9-9----------|   4x
A|-0-0-----x-x-x-x----7-7--4-4--6-6--5-5--7-7----------|
E|--------------------5-5-------4-4--------------------|#/10t2##/10t1#
Composição: Colaboração e revisão: Renan LuizDiego Galvão