busca

Boxing Day

blink-182

Tom: G
G D4/F# Em7 Cadd9
Let's get started, the faint and brokenhearted
G D4/F# Em7 Cadd9
Hold it up! I've got something I cannot hide.
G D4/F# Em7 Cadd9
The worst painkiller, thatall them filler,
G D4/F# Em7 Cadd9
apart and the part, look in my eyes.

G                D4/F#                 Em7
Sad, how far you ran, I'll search this land,
               Cadd9
Up through the clouds then back here.
G             D4/F#        Em7                 Cadd9
We could reignite like fireflies, like an atom bomb,
And all I was…

                   G          Cadd9
I'm empty like the day after Christmas,
                  Em7                 Cadd9
Swept beneath the wave of your goodbye.
                   G          Cadd9
You left me on the day after Christmas,
                        Em7             Cadd9
There's nothing left to say, and so goodnight.

G D4/F# Em7 Cadd9
I will follow the trail to tomorrow,
G D4/F# Em7 Cadd9
With my loneliness with sorrow all through the night.
G D4/F# Em7 Cadd9
Sons and daughters, mothers and their fathers.
G D4/F# Em7 Cadd9
Just the bridges and the waters their clues left behind.

G                D4/F#                 Em7
Sad, how far you ran, I'll search this land,
               Cadd9
Up through the clouds then back here.
G            D4/F#          Em7                Cadd9
We could reignite like fireflies, like an atom bomb,
And all I was…

                   G          Cadd9
I'm empty like the day after Christmas,
                  Em7                 Cadd9
Swept beneath the wave of your goodbye.
                   G           Cadd9
You left me on the day after Christmas,
                        Em7             Cadd9
There's nothing left to say, and so goodnight.
                   G          Cadd9
I'm empty like the day after Christmas,
                  Em7                 Cadd9
Swept beneath the wave of your goodbye.
                   G                  Cadd9
You left me on the day after Christmas,
                        Em7             Cadd9
There's nothing left to say, and so goodnight.
    G
Goodnight.

Para quem quiser tocar certinho segue os riffs:

Intro riff:
E|------------------------------------|
B|---3---------3---1---------1p0------|    
G|-------0---0---------0---0-------0--|    
D|------------------------------------|    
A|---2-----2-------0-----0-------0----|
E|------------------------------------|

Riff da música inteira:                                     Oitavadinha 
E|---3---------------3-------3--------|-----3---------------7/8-8-8-7---------|
B|---3---------------3-------3--------|-----3---------------x/x-x-x-x---------|
G|---0---------------2-------x--------|-----0---------------x/x-x-x-x---------|
D|---0---------------0-------2--------|-----2---------------4/5-5-5-4---------|
A|---2---------------0-------0--------|-----2---------------------------------|
E|---3---------------2-------x--------|-----0---------------------------------|

Clipes