busca

Cacophony

Blink-182

Tom: F
Intro(começa apenas o baixo)
|---------------------------------------|
|---------------------------------------|
|---------------------------------------|
|---------------------------------------|2x
|-----3-------5-------7-------3---------|
|-0-0---0-3-3---3-5-5---5-1-1---1-------|
Riff1(2x)
|-------------------------------------------------|
|-------------------------------------------------|
|-5--5-7-5-5-5-7-10-10--9-5--5-5-7-5--5-7-5-5-4-5-|
|-5--5-5-5-5-5-5-10-10-10-5--5-5-5-5--5-5-5-5-5-5-|
|-------------------------------------------------|
|-------------------------------------------------|
Riff2
|-------------------------------------------------|
|-------------------------------------------------|
|----------------------------7-777777-------------|
|-7-777777-3-333333-7-777777-7-777777-333333333---|
|-7-777777-3-333333-7-777777-5-555555-333333333---|
|-5-555555-1-111111-5-555555----------111111111---|
Repete Riff1(1x)
Verso(só o baixo)2x
|---------------------------------|
|---------------------------------|
|---------------------------------|
|---------------------------------|
|----------------------5-----3----|
|-0-0-0-0-1-1-1-1/3--3---3-1---1--|

|---------------------------------|
|---------------------------------|
|---------------------------------|
|---------------------------------|
|---------------------------------|
|-0-0-0-0-1-1-1-1/3-3-3-5-1-1-1-1-|
Refrão:Riff2
Repete tudo mais uma vez
Letra:
VERSO
When you talk about tomorrow/I'm not sure about today/When you tell 
me that you love me/What am I supposed to say?
REFRÃO
Sometimes I don't feel the same way as you feel
VERSO
Words like forever scares the shit out of me/Maybe I'm afraid of a 
commitment/Maybe you're too distracted to see that
REFRÃO

Clipes