busca

Carousel

Blink-182

Tom: G
Essa Intro é para Baixo, mais aki esta adaptado para guitarra.
E|-------------------------------------------------------------------.
B|-------------------------------------------------------------------.
G|-------------------------------------------------------------------.
D|--4-4-5-7-5-4------------------------------------------------------.
A|5-------------5---4-4-5-7-5-4-----7-7-9-10-9-7-9---5-5---5----5----.
E|----------------5-------------5-7----------------3-3-3-3-3--3-3----.


E|--------------------------------------------------------------------.
B|--------------------------------------------------------------------.
G|-------------------------------------------------7-7-7-7-7-7-7-7---.
D|--4-4-5-7-5-4------------------------------------x-x-x-x-x-x-x-x---.
A|5-------------5---4-4-5-7-5-4-----7-7-9-10-9-7-9-5-5-5-5-5-5-5-5---.
E|----------------5-------------5-7-----------------------------------.
                                                  |_______________|
                                           aki começa a guitarra na verdade.
.
E|---------------------------------------------------------------------.
B|---------------------------------------------------------------------.
G|7-7-7-7-7--7--7-7-7-7-7--7--7-7-7-7-7--7--7-7-7-7-7--7--7-7-7-7-7--7-.
D|x-x-x-x-x--x--x-x-x-x-x--x--x-x-x-x-x--x--x-x-x-x-x--x--x-x-x-x-x--x-.
A|5-5-5-5-5--5--5-5-5-5-5--5--5-5-5-5-5--5--5-5-5-5-5--5--5-5-5-5-5--5-.
E|---------------------------------------------------------------------.
      
                                    
              Sem distorção ainda mais com o volume alto !!!.
E|---------------------------------------------------------------------.
B|---------------------------------------------------------------------.
G|7-7-7-7-7--7- 7-7-7-7-7--7--7-7-7-7-7--7--7-7-7/(9)-9--9--9-9-9/(11)-.
D|x-x-x-x-x--x--x-x-x-x-x--x--x-x-x-x-x--x--x-x-x/(x)-x--x--x-x-x/(x-)-.
A|5-5-5-5-5--5--5-5-5-5-5--5--5-5-5-5-5--5--5-5-5/(7)-7--7--7-7-7/(9-)-.
E|---------------------------------------------------------------------.
      .
.
.
E.|--------------------------------------------------------------------.
B|---------------------------------------------------------------------.
G|-11-11--111111(7)-7--7--7-7-7/(11)-11-11-111111(9)--9--9--9-9-9/---.
D|-x--x---x-x-x-(x)-x--x--x-x-x/(x-)-x--x--x-x-x-(x)--x--x--x-x-x/---..
A|-9--9---9-9-9-(5)-5--5--5-5-5/(9-)-9--9--9-9-9-(7)--7--7--7-7-7/---.
E|--------------------------------------------------------------------.-
   



                             Distorçao total !!!!                     .
E|---------------------------------------------------------------------.
B|---------------------------------------------------------------------.
G|(11)-11-11-111111(7)-7--7--7-7--7-7-7--7-2-2--2-2-2--2-4-4--4-4-4---.
D|(x-)-x--x--x-x-x-(x)-x--x--7-7--7-7-7--7-2-2--2-2-2--2-4-4--4-4-4---.
A|(9-)-9--9--7-7-7-(5)-5--5--5-5--5-5-5--5-0-0--0-0-0--0-2-2--2-2-2---.
E|---------------------------------------------------------------------.
          .



E|---------------------------------------------------------------------.
B|---------------------------------------------------------------------.
G|4---------------7-7--7-7-7--7-2-2--2-2-2--2-2-4--4-4-4--4------------.
D|4-5-5--5-5-5--5-7-5--7-7-7--7-2-2--2-2-2--2-2-4--4-4-4--4-5-5--5-5-5-.
A|2-5-3--5-5-5--5-5-5--5-5-5--5-0-0--0-0-0--0-0-2--2-2-2--2-5-5--5-5-5-.
E|--3-3--3-3-3--3-------------------------------------------3-3--3-3-3-.
    .


 
E|---------------------------------------------------------------------
B|---------------------------------------------------------------------
G|---------------------------------------------------------------------
D|5--------------------------------------------------------------------
A|5-4-5--------4-5--5-5-5--5-5-5--5-7-5--4-5---------4-5--4-4--5-5-5--7
E|3--------------------------------------------------------------------
    


E|---------------------------------------------------------------------
B|---------------------------------------------------------------------
G|---------------------------------------------------------------------
D|----------4--4-4-4-5-2--2--2-2-2-4--4-4-4h5p4-7-7--5-5--4-4--2--4--4-
A|-4-5-7--0------------------------------------------------------------
E|---------------------------------------------------------------------


                                          Verso
 
E|--------------------------------------|------------------------------
B|--------------------------------------|------------------------------
G|--------------------------------------|7--7--7-7-7--2--2-2--2-2------
D|4-4--5-2--2--2-2h4-0-4h5-0h2p0-4-5p0--|7--7--7-7-7--2--2-2--2-2------
A|-------------------------------------0|5--5--5-5-5--0--0-0--0-0------
E|--------------------------------------|------------------------------
                                         



E|---------------------------------------------------------------------
B|---------------------------------------------------------------------
G|4--4--4-4-4---------------7--7--7-7-7--2--2-2--2-2--4--4--4-4-4------
D|4--4--4-4-4--5--5-5--5-5--7--7--7-7-7--2--2-2--2-2--4--4--4-4-4------
A|2--2--2-2-2--5--5-5--5-5--5--5--5-5-5--0--0-0--0-0--2--2--2-2-2------
E|-------------3--3-3--3-3---------------------------------------------


E|---------------------------------------------------------------------
B|---------------------------------------------------------------------
G|-------------7--7--7-7-7--2--2-2--2-2--4--4--4-4-4-------------------
D|5--5-5--5-5--7--7--7-7-7--2--2-2--2-2--4--4--4-4-4--5--5-5--5-5------
A|5--5-5--5-5--5--5--5-5-5--0--0-0--0-0--2--2--2-2-2--5--5-5--5-5------
E|3--3-3--3-3-----------------------------------------3--3-3--3-3------


Chorus
E|--------------------------------------------------|------------------
B|--------------------------------------------------|------------------
G|7--7--7-7-7--2--2-2--2-2--4--4--4-4-4-------------|-7-7-7-7-7-7-7-7--
D|7--7--7-7-7--2--2-2--2-2--4--4--4-4-4--5--5-5--5-5|-7-7-7-7-7-7-7-7--
A|5--5--5-5-5--0--0-0--0-0--2--2--2-2-2--5--5-5--5-5|-5-5-5-5-5-5-5-5--
E|---------------------------------------3--3-3--3-3|------------------


E|---------------------------------------------------------------------
B|---------------------------------------------------------------------
G|9-9-9-9-9-9-9-9-2-2-2-2-2-2-2-2-----------------7-7-7-7-7-7-7-7------
D|9-9-9-9-9-9-9-9-2-2-2-2-2-2-2-2-5-5-5-5-5-5-5-5-7-7-7-7-7-7-7-7------
A|7-7-7-7-7-7-7-7-0-0-0-0-0-0-0-0-5-5-5-5-5-5-5-5-5-5-5-5-5-5-5-5------
E|--------------------------------3-3-3-3-3-3-3-3----------------------


 
E|---------------------------------------------------------------------
B|---------------------------------------------------------------------
G|9-9-9-9-9-9-9-9-2-2-2-2-2-2-2-2-----------------7-7-7-7-7-7-7-7------
D|9-9-9-9-9-9-9-9-2-2-2-2-2-2-2-2-5-5-5-5-5-5-5-5-7-7-7-7-7-7-7-7------
A|7-7-7-7-7-7-7-7-0-0-0-0-0-0-0-0-5-5-5-5-5-5-5-5-5-5-5-5-5-5-5-5------
E|--------------------------------3-3-3-3-3-3-3-3----------------------


E|---------------------------------------------------------------------
B|---------------------------------------------------------------------
G|9-9-9-9-9-9-9-9-2-2-2-2-2-2-2-2-----------------7-7-7-7-7-7-7-7------
D|9-9-9-9-9-9-9-9-2-2-2-2-2-2-2-2-5-5-5-5-5-5-5-5-7-7-7-7-7-7-7-7------
A|7-7-7-7-7-7-7-7-0-0-0-0-0-0-0-0-5-5-5-5-5-5-5-5-5-5-5-5-5-5-5-5------
E|--------------------------------3-3-3-3-3-3-3-3----------------------



                                                  
  
E|-----------------------------------------------|---------------------
B|-----------------------------------------------|---------------------
G|9-9-9-9-9-9-9-9-2------------------------------|---------------------
D|9-9-9-9-9-9-9-9-2---------------5-5-5-5-5-5-5-5|4--4-4-4-5-2--2--2-2-
A|7-7-7-7-7-7-7-7-0---------------5-5-5-5-5-5-5-5|---------------------
E|--------------------------------3-3-3-3-3-3-3-3|---------------------


  
E|---------------------------------------------------------------------
B|---------------------------------------------------------------------
G|---------------------------------------------------------------------
D|2-4--4-4-4h5p4-7-7--5-5--4-4--2--4--4-4-4--5-2--2--2-2h4-0-4h5-0h2p0-
A|---------------------------------------------------------------------
E|---------------------------------------------------------------------



Verso
E|-------|-------------------------------------------------------------
B|-------|-------------------------------------------------------------
G|-------|7--7--7-7-7--2--2-2--2-2--4--4--4-4-4---------------7--7--7-7
D|4-5p0--|7--7--7-7-7--2--2-2--2-2--4--4--4-4-4--5--5-5--5-5--7--7--7-7
A|------0|5--5--5-5-5--0--0-0--0-0--2--2--2-2-2--5--5-5--5-5--5--5--5-5
E|-------|---------------------------------------3--3-3--3-3-----------



 
E|---------------------------------------------------------------------
B|---------------------------------------------------------------------
G|7--2--2-2--2-2--4--4--4-4-4------------------------------------------
D|7--2--2-2--2-2--4--4--4-4-4--5--5-5--5-5--0--------------------------
A|5--0--0-0--0-0--2--2--2-2-2--5--5-5--5-5-----------------------------
E|-----------------------------3--3-3--3-3-----------------------------



 Parte foda
 
E|---------------------------------------------------------------------
B|---------------------------------------------------------------------
G|-----------------------------------------------------------------
D|0--4--5--7--5--4--0-----------------------------------------
A|---------------------0-4-5-7-5-4-0----7-9-10-9-7-9---2-3-5-3-2-------
E|---------------------------------------------------------------3-----




 
|---------------------------------------------------------------------
B|---------------------------------------------------------------------
G|-----------------------------------------------------------------
D|0--4--5--7--5--4--0-----------------------------------------
A|---------------------0-4-5-7-5-4-0----7-9-10-9-7-9---2-3-5-3-2-------
E|---------------------------------------------------------------3-----




  
|---------------------------------------------------------------------
B|---------------------------------------------------------------------
G|-----------------------------------------------------------------
D|0--4--5--7--5--4--0-----------------------------------------
A|---------------------0-4-5-7-5-4-0----7-9-10-9-7-9---2-3-5-3-2------- 
E|---------------------------------------------------------------3-----




  
|---------------------------------------------------------------------
B|---------------------------------------------------------------------
G|-----------------------------------------------------------------
D|0--4--5--7--5--4--0-----------------------------------------
A|---------------------0-4-5-7-5-4-0----7-9-10-9-7-9---2-3-5-3-2----------
E|---------------------------------------------------------------3-----



     Chorus

E|---------------------------------------------------------------------
B|---------------------------------------------------------------------
G|7-7-7-7-7-7-7-7-9-9-9-9-9-9-9-9-2-2-2-2-2-2-2-2----------------------
D|7-7-7-7-7-7-7-7-9-9-9-9-9-9-9-9-2-2-2-2-2-2-2-2-5-5-5-5-5-5-5-5------
A|5-5-5-5-5-5-5-5-7-7-7-7-7-7-7-7-0-0-0-0-0-0-0-0-5-5-5-5-5-5-5-5------
E|------------------------------------------------3-3-3-3-3-3-3-3------



  
E|---------------------------------------------------------------------
B|---------------------------------------------------------------------
G|7-7-7-7-7-7-7-7-9-9-9-9-9-9-9-9-2-2-2-2-2-2-2-2----------------------
D|7-7-7-7-7-7-7-7-9-9-9-9-9-9-9-9-2-2-2-2-2-2-2-2-5-5-5-5-5-5-5-5------
A|5-5-5-5-5-5-5-5-7-7-7-7-7-7-7-7-0-0-0-0-0-0-0-0-5-5-5-5-5-5-5-5------
E|------------------------------------------------3-3-3-3-3-3-3-3------



 
E|---------------------------------------------------------------------
B|---------------------------------------------------------------------
G|7-7-7-7-7-7-7-7-9-9-9-9-9-9-9-9-2-2-2-2-2-2-2-2----------------------
D|7-7-7-7-7-7-7-7-9-9-9-9-9-9-9-9-2-2-2-2-2-2-2-2-5-5-5-5-5-5-5-5------
A|5-5-5-5-5-5-5-5-7-7-7-7-7-7-7-7-0-0-0-0-0-0-0-0-5-5-5-5-5-5-5-5------
E|------------------------------------------------3-3-3-3-3-3-3-3------


E|---------------------------------------------------------------------
B|---------------------------------------------------------------------
G|7-7-7-7-7-7-7-7-9-9-9-9-9-9-9-9-2------------------------7-----------
D|7-7-7-7-7-7-7-7-9-9-9-9-9-9-9-9-2------------5--5--5--5--7-----------
A|5-5-5-5-5-5-5-5-7-7-7-7-7-7-7-7-0------------5--5--5--5--5-----------
E|---------------------------------------------3--3--3--3--------------

Ai a Tab ta ai é moh facil tok qualquer coisa meu icq eh 170875705

Letra:

I talk to you every now and then 
I never felt so alone again 
I stop to think at a wishing well 
My thoughts send me on a Carousel 

Here I am standing on my own 
Not a motion from the telephone 
I know not a reason why 
Solitude's a reason to die 

Just you wait and see 
A school life is a 
It is a woken dream 

Aren't you feeling alo-o-o-o-one? 
I guess its just another 
I guess its just another 
I guess its just another night alone 

Now as I walk down the street 
I need a job just to sleep in sheets 
Buying food every once in a while 
But not enough to purchase a smile 

A tank of gas is a treasure to me 
I know now that nothing is free 
I talk to you every now and then 
I never felt so alone again 

Just you wait and see 
As school life is a 
It is a woken dream 

Aren't you feeling alo-o-o-o-one? 
I guess its just another 
I guess its just another 
I guess its just another night alone 

Clipes