Dogs Eating Dogs

Blink-182

Tom: G
#1t1#Guitar 1
#1t2#E|---------------------------------------------------------------|
B|---------------------------------------------------------------|
G|--5----4----5----7----5----4----5-5-5-5-5-5-5-5----------------|
D|--x----x----x----x----x----x----5-5-5-5-5-5-5-5-5-5-5-5-5-5-5-5|
A|--3----2----2----5----3----2----3-3-3-3-3-3-3-3-5-5-5-5-5-5-5-5|
E|------------------------------------------------3-3-3-3-3-3-3-3|#/1t2##/1t1#
#2t1#Guitar 2                                                             X4
#2t2#E|---------------------------------------------------------------|
B|---------------------------------------------------------------|
G|--------------------------------5-5-5-5-5-5-5-5----------------|
D|7-7-7-7-7-7-7-7-7-7-7-7-7-7-7-7-5-5-5-5-5-5-5-5-5-5-5-5-5-5-5-5|
A|7-7-7-7-7-7-7-7-7-7-7-7-7-7-7-7-3-3-3-3-3-3-3-3-5-5-5-5-5-5-5-5|
E|5-5-5-5-5-5-5-5-5-5-5-5-5-5-5-5-----------------3-3-3-3-3-3-3-3|#/2t2##/2t1#


 Verse

#3t1##3t2#E|---------------------------------------------------------------|
B|---------------------------------------------------------------|
G|--------------------------------5-5-5-5-5-5-5-5----------------|
D|7~------------------------------5-5-5-5-5-5-5-5-5-5-5-5-5-5-5-5|
A|7~------------------------------3-3-3-3-3-3-3-3-5-5-5-5-5-5-5-5|
E|5~----------------------------------------------3-3-3-3-3-3-3-3|#/3t2##/3t1#

#4t1##4t2#E|---------------------------------------------------------------|
B|---------------------------------------------------------------|
G|--------------------------------5-5-5-5-5-5-5-5----------------|
D|7-7-7-7-7-7-7-7-7-7-7-7-7-7-7-7-5-5-5-5-5-5-5-5-5-5-5-5-5-5-5-5|X3
A|7-7-7-7-7-7-7-7-7-7-7-7-7-7-7-7-3-3-3-3-3-3-3-3-5-5-5-5-5-5-5-5|
E|5-5-5-5-5-5-5-5-5-5-5-5-5-5-5-5-----------------3-3-3-3-3-3-3-3|#/4t2##/4t1#

#5t1##5t2#E|---------------------------------------------------------------|
B|---------------------------------------------------------------|
G|---------------------------------------------------------------|
D|--------------------------------5-5-5-5-5-5-5-5----------------|X2
A|7-7-7-7-7-7-7-7-7-7-7-7-7-7-7-7-3-3-3-3-3-3-3-3-5-5-5-5-5-5-5-5|
E|5-5-5-5-5-5-5-5-5-5-5-5-5-5-5-5-----------------3-3-3-3-3-3-3-3|
  x x x x x x x x x x x x x x x x x x x x x x x x x x x x x x x x#/5t2##/5t1#

#6t1# Chorus
#6t2#E|----------------------------------------------------------------------------|
B|----------------------------------------------------------------------------|
G|5---------------------------------------------------------------------------|
D|5-----3------7-7-7-7-7-7-7-7-5-5-5-5-5-5-5-5-3-3-3-3-3-3-3-3-3-3-3-3-3-3-3-3|X2
A|3-----3------7-7-7-7-7-7-7-7-5-5-5-5-5-5-5-5-3-3-3-3-3-3-3-3-3-3-3-3-3-3-3-3|
E|------1------5-5-5-5-5-5-5-5-3-3-3-3-3-3-3-3-1-1-1-1-1-1-1-1-1-1-1-1-1-1-1-1|#/6t2##/6t1#

#7t1##7t2#E|--------------------------------------------|
B|--------------------------------------------|
G|5-4-5-7-5-4--5-5-5-5-5-5-5-5----------------|
D|x-x-x-x-x-x--5-5-5-5-5-5-5-5-5-5-5-5-5-5-5-5|X2
A|3-2-2-5-3-2--3-3-3-3-3-3-3-3-5-5-5-5-5-5-5-5|
E|-----------------------------3-3-3-3-3-3-3-3|#/7t2##/7t1#

#8t1##8t2#E|---------------------------------------------------------------|
B|---------------------------------------------------------------|
G|--------------------------------5-5-5-5-5-5-5-5----------------|
D|7-7-7-7-7-7-7-7-7-7-7-7-7-7-7-7-5-5-5-5-5-5-5-5-5-5-5-5-5-5-5-5|X2
A|7-7-7-7-7-7-7-7-7-7-7-7-7-7-7-7-3-3-3-3-3-3-3-3-5-5-5-5-5-5-5-5|
E|5-5-5-5-5-5-5-5-5-5-5-5-5-5-5-5-----------------3-3-3-3-3-3-3-3|#/8t2##/8t1#

#9t1##9t2#E|---------------------------------------------------------------|
B|---------------------------------------------------------------|
G|---------------------------------------------------------------|
D|--------------------------------5-5-5-5-5-5-5-5----------------|X2
A|7-7-7-7-7-7-7-7-7-7-7-7-7-7-7-7-3-3-3-3-3-3-3-3-5-5-5-5-5-5-5-5|
E|5-5-5-5-5-5-5-5-5-5-5-5-5-5-5-5-----------------3-3-3-3-3-3-3-3|
  x x x x x x x x x x x x x x x x x x x x x x x x x x x x x x x x#/9t2##/9t1#

#10t1#Chorus
#10t2#E|----------------------------------------------------------------------------|
B|----------------------------------------------------------------------------|
G|5---------------------------------------------------------------------------|
D|5-----3------7-7-7-7-7-7-7-7-5-5-5-5-5-5-5-5-3-3-3-3-3-3-3-3-3-3-3-3-3-3-3-3|X2
A|3-----3------7-7-7-7-7-7-7-7-5-5-5-5-5-5-5-5-3-3-3-3-3-3-3-3-3-3-3-3-3-3-3-3|
E|------1------5-5-5-5-5-5-5-5-3-3-3-3-3-3-3-3-1-1-1-1-1-1-1-1-1-1-1-1-1-1-1-1|#/10t2##/10t1#

 Bridge
 Guitar comes in at 2:13
#11t1##11t2#E|----------------------------------------------------------------------|
B|----------------------------------------------------------------------|
G|-------------------------------4--------4------4------4-------4------4|
D|-----------------------------4---4----4---4--4------4---4---4---4--4--|
A|2---3-----3--2--3----------2----------------------2-------------------|
E|------------------------------------3---------------------3-----------|#/11t2##/11t1#

#12t1##12t2#E|---------------------|
B|---------------------|
G|----4--------4-----4-|
D|--4---4----4---4--4--|
A|2--------------------|
E|---------3-----------|#/12t2##/12t1#


#13t1##13t2#E|---------------------------------------------------------------|
B|---------------------------------------------------------------|
G|---------------------------------------------------------------|
D|--------------------------------5-5-5-5-5-5-5-5----------------|X2
A|7-7-7-7-7-7-7-7-7-7-7-7-7-7-7-7-3-3-3-3-3-3-3-3-5-5-5-5-5-5-5-5|
E|5-5-5-5-5-5-5-5-5-5-5-5-5-5-5-5-----------------3-3-3-3-3-3-3-3|
  x x x x x x x x x x x x x x x x x x x x x x x x x x x x x x x x#/13t2##/13t1#

#14t1#Chorus
#14t2#E|----------------------------------------------------------------------------|
B|----------------------------------------------------------------------------|
G|5---------------------------------------------------------------------------|
D|5-----3------7-7-7-7-7-7-7-7-5-5-5-5-5-5-5-5-3-3-3-3-3-3-3-3-3-3-3-3-3-3-3-3|X2
A|3-----3------7-7-7-7-7-7-7-7-5-5-5-5-5-5-5-5-3-3-3-3-3-3-3-3-3-3-3-3-3-3-3-3|
E|------1------5-5-5-5-5-5-5-5-3-3-3-3-3-3-3-3-1-1-1-1-1-1-1-1-1-1-1-1-1-1-1-1|#/14t2##/14t1#

Outro
Guitar 1
#15t1##15t2#E|---------------------------------------------------------------|
B|---------------------------------------------------------------|
G|--5----4----5----7----5----4----5-5-5-5-5-5-5-5----------------|
D|--x----x----x----x----x----x----5-5-5-5-5-5-5-5-5-5-5-5-5-5-5-5|
A|--3----2----2----5----3----2----3-3-3-3-3-3-3-3-5-5-5-5-5-5-5-5|
E|------------------------------------------------3-3-3-3-3-3-3-3|#/15t2##/15t1#
#16t1#Guitar 2
#16t2#E|---------------------------------------------------------------|
B|---------------------------------------------------------------|
G|--------------------------------5-5-5-5-5-5-5-5----------------|
D|7-7-7-7-7-7-7-7-7-7-7-7-7-7-7-7-5-5-5-5-5-5-5-5-5-5-5-5-5-5-5-5|
A|7-7-7-7-7-7-7-7-7-7-7-7-7-7-7-7-3-3-3-3-3-3-3-3-5-5-5-5-5-5-5-5|
E|5-5-5-5-5-5-5-5-5-5-5-5-5-5-5-5-----------------3-3-3-3-3-3-3-3|#/16t2##/16t1#

#17t1#Guitar 1
#17t2#E|--------------------------------------------------|
B|--------------------------------------------------|
G|--5----4----5----7----5----4----5-5-5-5-5-5-5-5---|
D|--x----x----x----x----x----x----5-5-5-5-5-5-5-5-5-|
A|--3----2----2----5----3----2----3-3-3-3-3-3-3-3-5-|
E|------------------------------------------------3-|#/17t2##/17t1#
#18t1#Guitar 2
#18t2#E|--------------------------------------------------|
B|--------------------------------------------------|
G|--------------------------------5-5-5-5-5-5-5-5---|
D|7-7-7-7-7-7-7-7-7-7-7-7-7-7-7-7-5-5-5-5-5-5-5-5-5-|X3
A|7-7-7-7-7-7-7-7-7-7-7-7-7-7-7-7-3-3-3-3-3-3-3-3-5-|
E|5-5-5-5-5-5-5-5-5-5-5-5-5-5-5-5-----------------3-|#/18t2##/18t1#
Composição: Colaboração e revisão: Luciano Fernandes