busca

Don´t Leave Me

blink-182

Tom: D
Intro

E|-------------------------------------|
B|--2-2-2------------------------------|
G|--2-2-2--7-7-7--4-4-4--7-7-7--9-9-9--| 2X
D|--2-2-2--7-7-5--4-4-4--7-7-7--9-9-9--| 
A|--0-0-0--5-5-5--2-2-2--5-5-5--7-7-7--|
E|--x-x-x------------------------------|

Base

E|------------------------------|
B|--2-2-2-----------------------|
G|--2-2-2--7-7-7--4-4-4--7-7-7--|
D|--2-2-2--7-7-7--4-4-4--7-7-7--|
A|--0-0-0--5-5-5--2-2-2--5-5-5--|
E|--x-x-x-----------------------|

Don't leave me all alone
Just drop me off at home

E|-------------------------------------|
B|--2-2-2------------------------------|
G|--2-2-2--7-7-7--4-4-4--7-7-7--9-9-9--|
D|--2-2-2--7-7-7--4-4-4--7-7-7--9-9-9--|
A|--0-0-0--5-5-5--2-2-2--5-5-5--7-7-7--|
E|--x-x-x------------------------------|

I'll be fine, it's not the first
Just like last time, but a little worse

Refrao

E|------------------------------|
B|--2-2-2-----------------------|
G|--2-2-2--4-4-4--7-7-7--9-9-9--| 3X
D|--2-2-2--4-4-4--7-7-7--9-9-9--|
A|--0-0-0--2-2-2--5-5-5--7-7-7--|
E|--x-x-x-----------------------|

E|---------------------------|
B|--2-2-2--------------------|
G|--2-2-2--4-4-4--7-7-7-7-7--|
D|--2-2-2--4-4-4--7-7-7-7-7--|
A|--0-0-0--2-2-2--5-5-5-5-5--|
E|--x-x-x--------------------|

She said that I'm not the one that she thinks about and
She said it stopped being fun, I just bring her down
I said "Don't let you'r future be destroyed by my past"
She said "Don't let my door hit you'r ass"

E|-------------------------------------|
B|--2-2-2------------------------------|
G|--2-2-2--7-7-7--4-4-4--7-7-7--9-9-9--| 2X
D|--2-2-2--7-7-5--4-4-4--7-7-7--9-9-9--| 
A|--0-0-0--5-5-5--2-2-2--5-5-5--7-7-7--|
E|--x-x-x------------------------------|

E|------------------------------|
B|--2-2-2-----------------------|
G|--2-2-2--7-7-7--4-4-4--7-7-7--|
D|--2-2-2--7-7-7--4-4-4--7-7-7--|
A|--0-0-0--5-5-5--2-2-2--5-5-5--|
E|--x-x-x-----------------------|

Just give me one more chance, I'll try this time
I'll give you you'rs, I won't take mine

E|-------------------------------------|
B|--2-2-2------------------------------|
G|--2-2-2--7-7-7--4-4-4--7-7-7--9-9-9--|
D|--2-2-2--7-7-7--4-4-4--7-7-7--9-9-9--|
A|--0-0-0--5-5-5--2-2-2--5-5-5--7-7-7--|
E|--x-x-x------------------------------|

I'll listen up, pretend to care
Go on ahead, I'll meet you there

Refrao

E|-----------------------|
B|--2-2-2----------------|
G|--2-2-2---------7-7-7--|
D|--2-2-2--2-2-2--7-7-7--|
A|--0-0-0--2-2-2--5-5-5--|
E|--x-x-x--0-0-0---------|

Let's try this one more time with feeling
one more time with feeling
one more time with feeling
one more time with feeling

Refrao

Parte final

E|--------------------------------------------|
B|--2-2-2------------------------------2-2-2--|
G|--2-2-2--7-7-7--4-4-4--7-7-7--9-9-9--2-2-2--|
D|--2-2-2--7-7-7--4-4-4--7-7-7--9-9-9--2-2-2--|
A|--0-0-0--5-5-5--2-2-2--5-5-5--7-7-7--0-0-0--|
E|--x-x-x------------------------------x-x-x--|

Dont leve me all alone
just drop me off at home
and i'll be fine.

Clipes