busca

Don´t Leave Me

Blink-182

Tom: D
[Intro]

    A5     D5     B5     D5     E5
E|-------------------------------------|
B|-------------------------------------|
G|--2-2-2--7-7-7--4-4-4--7-7-7--9-9-9--| 2x
D|--2-2-2--7-7-5--4-4-4--7-7-7--9-9-9--|
A|--0-0-0--5-5-5--2-2-2--5-5-5--7-7-7--|
E|-------------------------------------|
 p.m ....

[Primeira Parte]

   A5      D5     B5     D5
E|------------------------------|
B|------------------------------|
G|--2-2-2--7-7-7--4-4-4--7-7-7--|
D|--2-2-2--7-7-7--4-4-4--7-7-7--|
A|--0-0-0--5-5-5--2-2-2--5-5-5--|
E|------------------------------|

A5              D5
 Don't leave me all alone
B5           D5 
Just drop me off at home

    A5     D5     B5     D5     E5
E|-------------------------------------|
B|-------------------------------------|
G|--2-2-2--7-7-7--4-4-4--7-7-7--9-9-9--|
D|--2-2-2--7-7-7--4-4-4--7-7-7--9-9-9--|
A|--0-0-0--5-5-5--2-2-2--5-5-5--7-7-7--|
E|-------------------------------------|

A5                 D5
I'll be fine, it's not the first
     B5                    D5     E5 
Just like last time, but a little worse

[Refrão]

    A5     B5     D5     E5
E|------------------------------|
B|------------------------------|
G|--2-2-2--4-4-4--7-7-7--9-9-9--| 3x
D|--2-2-2--4-4-4--7-7-7--9-9-9--|
A|--0-0-0--2-2-2--5-5-5--7-7-7--|
E|------------------------------|

    A5     B5     D5
E|---------------------------|
B|---------------------------|
G|--2-2-2--4-4-4--7-7-7-7-7--|
D|--2-2-2--4-4-4--7-7-7-7-7--|
A|--0-0-0--2-2-2--5-5-5-5-5--|
E|---------------------------|

A5             B5          D5           E5
 She said that I'm not the one that she thinks about and
A5            B5           D5          E5
 She said it stopped being fun, I just bring her down
 A5                      B5           D5          E5  
I said, "don't let your future be destroyed by my past."
A5                      B5            D5 
She said, "don't let my door hit your ass."

    A5     D5     B5     D5     E5
E|-------------------------------------|
B|-------------------------------------|
G|--2-2-2--7-7-7--4-4-4--7-7-7--9-9-9--|
D|--2-2-2--7-7-5--4-4-4--7-7-7--9-9-9--|
A|--0-0-0--5-5-5--2-2-2--5-5-5--7-7-7--|
E|-------------------------------------|
 p.m ....

[Segunda Parte]

   A5      D5     B5     D5
E|------------------------------|
B|------------------------------|
G|--2-2-2--7-7-7--4-4-4--7-7-7--|
D|--2-2-2--7-7-7--4-4-4--7-7-7--|
A|--0-0-0--5-5-5--2-2-2--5-5-5--|
E|------------------------------|

            A5                     D5
Just give me one more chance, I'll try this time
     B5                D5 
I'll give you yours, I won't take mine

    A5     D5     B5     D5     E5
E|-------------------------------------|
B|-------------------------------------|
G|--2-2-2--7-7-7--4-4-4--7-7-7--9-9-9--|
D|--2-2-2--7-7-7--4-4-4--7-7-7--9-9-9--|
A|--0-0-0--5-5-5--2-2-2--5-5-5--7-7-7--|
E|-------------------------------------|

      A5           D5 
I'll listen up, pretend to care
   B5             D5       E5
Go on ahead, I'll meet you there

[Refrão]

A5             B5          D5           E5
 She said that I'm not the one that she thinks about and
A5            B5           D5          E5
 She said it stopped being fun, I just bring her down
 A5                      B5           D5          E5  
I said, "don't let your future be destroyed by my past."
A5                      B5            D5 
She said, "don't let my door hit your ass."


[Instrumental]

   A5        E5       D5
E|----------------------------------|
B|----------------------------------|
G|-2-2-2-2-------------7-7-7-7-7-7--|
D|-2-2-2-2---2-2-2-2---7-7-7-7-7-7--| 4x
A|-0-0-0-0---2-2-2-2---5-5-5-5-5-5--|
E|-----------0-0-0-0----------------|

[Ponte]
               A5                 B5     D5 
Let's try this one more time with feeling   
A5                 B5     D5                  (2x)
One more time with feeling 

[Refrão]

A5             B5          D5           E5
 She said that I'm not the one that she thinks about and
A5            B5           D5          E5
 She said it stopped being fun, I just bring her down
 A5                      B5           D5          E5  
I said, "don't let your future be destroyed by my past."
A5                      B5            D5 
She said, "don't let my door hit your ass."

[Final]

   A5  D5  B5  D5  E5  A5
E|----------------------------------|
B|----------------------------------|
G|--2---7---4---7---9---2~~~~~~~~---|
D|--2---7---4---7---9---2~~~~~~~~---|
A|--0---5---2---5---7---0~~~~~~~~---|
E|----------------------------------|

A5             D5 
Don't leave me all alone
B5           D5     E5
Just drop me off at home
            A5
And I'll be fine

Clipes