busca

Don't Tell Me That It's Over

Blink-182

Don't Tell Me That It's Over
Verse 1/Chorus
G--------------------------------------------------------------------|
D--------------------------------------------------------------------|
A-3-3-3-3-3-3-3-3----------------------------------------------------|
E-----------------------3-3-3-3-3-3-3-3-1-1-1-1-1-1-1-1--------------| x8
Transition between chorus and verse
G-----------------------------------------------------------------|
D-----------------------------------------------------------------|
A-3-3-3-3-3-3-3-3-------------------------------------------------|
E-----------------------3-3-3-3-3-3-3-3-5-5-5-5-5-5-5-------------| x2

Verse 2 ("what's with the jokes....")
G--------------------------------------------------------------------|
D--------------------------------------------------------------------|
A-3-3-3-3-3-3-3-3----------------------------------------------------|
E-----------------------3-3-3-3-3-3-3-3-1-1-1-1-1-1-1-1--------------| x4

Back to the chorus ("Hold on... Don't tell me that it's over....") x 4 or something

Transition x2

Guitar Palm Mute Part ("Hold on, Hold on...")
G----------------------------------------------------------------------------------|
D----------------------------------------------------------------------------------|
A-3-3-3-x-3-3-3-x-8-8-8-x-8-8-8-x-10-10-10-x-10-10-10-x----------------------------|
E----------------------------------------------------------------------------------|

G--------------------------------------------------------------------------------------|
D--------------------------------------------------------------------------------------|
A-3-3-3-x-3-3-3-x-8-8-8-x-8-8-8-x------------------------------------------------------|
E--------------------------------------------3-3-3-x-3-3-3-x-1-1-1-x-1-1-1-x-----------|

You guys are smart you can figure out the order on this part because it's past midnight 
I don't wanna think to much....

Chorus until the end...

Clipes