busca

Dumpweed

Blink-182

Tom: B
[Introdução]

  E5
E|--------------------------------------------|
B|--------------------------------------------|
G|--------------------------------------------|
D|----6-6h7p6--------------6-6h7p6------------|
A|-----------------9-0------------------9-----|
E|-0-----------7-5-------0----------7-5-------|

  A5
E|--------------------------------------------|
B|--------------------------------------------|
G|--------------------------------------------|
D|----6-6h7p6--------------6-6h7p6--9---------|
A|-0---------------9-0---0--------------9-----|
E|-------------7-5--------------------7-------|

   E5          A5         B5                     E5

E|-4p0---4p0---2p0---2p0---4p0---4p0---5p0---5p0------|
B|-----0-----0-----0-----0-----0-----0-----0-----0----|
G|----------------------------------------------------| 2x
D|----------------------------------------------------|
A|----------------------------------------------------|
E|----------------------------------------------------|


[Verso 01]

  E5      B5    E5    B5   A5       B5    A5    B5     
E|-------------------------------------------------------|
B|-------------------------------------------------------|
G|-------------------------------------------------------|
D|-2-2222-44444-22222-44444-2-22222-44444-22222-44444----|
A|-2-2222-22222-22222-22222-0-00000-22222-00000-22222----|
E|-0-0000-------00000------------------------------------|
 p.m **** ***** ***** *****   ***** ***** ***** *****

E5                  B5
It's understood, i said it many ways
E5                 B5
Too scared to run, i'm too scared to stay
A5                    B5
I said i'd leave, but i could never leave her
A5                B5
And if i did, you know i'd never cheat her
E5                   B5
But this i ask, it's what i want to know
E5                     B5
How would you feel, if i should choose to go
A5               B5
Another guy, you think it'd be unlike me
A5               B5
Another guy, you think he'd want to fight me

  E5
E|--------------------------------------------|
B|--------------------------------------------|
G|--------------------------------------------|
D|----6-6h7p6--------------6-6h7p6------------|
A|-----------------9-0------------------9-----|
E|-0-----------7-5-------0----------7-5-------|

  A5
E|--------------------------------------------|
B|--------------------------------------------|
G|--------------------------------------------|
D|----6-6h7p6--------------6-6h7p6--9---------|
A|-0---------------9-0---0--------------9-----|
E|-------------7-5--------------------7-------|

[Refrão]

E5            B5
She's a dove, she's a fucken nightmare
A5            B5
Unpredictable, it was my mistake to stay here
E5                 B5                A5
On the go and it's way too late to play
         B5
I need a girl that i can train

   E5          A5         B5                     E5

E|-4p0---4p0---2p0---2p0---4p0---4p0---5p0---5p0------|
B|-----0-----0-----0-----0-----0-----0-----0-----0----|
G|----------------------------------------------------| 2x
D|----------------------------------------------------|
A|----------------------------------------------------|
E|----------------------------------------------------|

[Verso 02]

E5               B5
I heard it once, i'm sure i heard it twice
E5                     B5
My dad used to give me all of his advice
A5                           B5
He would say you got to turn your back and run now
A5               B5
Come on son, you haven't got a chance now

  E5
E|--------------------------------------------|
B|--------------------------------------------|
G|--------------------------------------------|
D|----6-6h7p6--------------6-6h7p6------------|
A|-----------------9-0------------------9-----|
E|-0-----------7-5-------0----------7-5-------|

  A5
E|--------------------------------------------|
B|--------------------------------------------|
G|--------------------------------------------|
D|----6-6h7p6--------------6-6h7p6--9---------|
A|-0---------------9-0---0--------------9-----|
E|-------------7-5--------------------7-------|

[Refrão]

E5           B5
She's a dove, she's a fucken nightmare
A5            B5
Unpredictable, it was my mistake to stay here       
E5                 B5                A5
On the go and it's way too late to play
         B5
I need a girl that i can train


[Final]

E5       B5              E5
I need a girl that i can train
         B5              A5
I need a girl that i can train
B5                        A5
Turn your back and run now
B5
You haven't got a chance now

[Solo] 

E|-4p0---0---2p0---0---4p0---0---5p0---0-----|
B|-----0---0-----0---0-----0---0-----0---0---|
G|-------------------------------------------|
D|-------------------------------------------|
A|-------------------------------------------|
E|-------------------------------------------|

E|-4p0---0---2p0---0---4p0---0---5p0----0h2--|
B|-----0---0-----0---0-----0---0-----0-------|
G|-------------------------------------------|
D|-------------------------------------------|
A|-------------------------------------------|
E|-------------------------------------------|

Clipes