busca

Dumpweed

blink-182

Tom: B
(intro)
   E
e|----------------------------------------|
b|----------------------------------------|
g|----------------------------------------|
d|---6-6h7p6-----4------6-6h7p6-----4-----|
a|----------------------------------------|
e|-0---------7-5---5--0---------7-5-------|

   A
e|----------------------------------------|
b|----------------------------------------|
g|----------------------------------------|
d|---6-6h7p6-----4------6-6h7p6--9--------|
a|-0------------------0--------------9----|
e|-----------7-5---5---------------7------|

(riff pós intro)

   E           A          B                      E
e|-4-0---4----2-0---2----4-0---4----5-0---5--0--4-|
b|-----0---0------0---0------0---0------0---------|
G|------------------------------------------------| > x2
d|------------------------------------------------|
a|------------------------------------------------|
e|------------------------------------------------|

(verso 1) palm mute
E                   B
It's understood, i said it many ways
E                  B
Too scared to run, i'm too scared to stay
A                     B
I said i'd leave, but i could never leave her
A                 B
And if i did, you know i'd never cheat her
E                    B
But this i ask, it's what i want to know
E                      B
How would you feel, if i should choose to go
A                B
Another guy, you think it'd be unlike me
A                B
Another guy, you think he'd want to fight me

   E
e|----------------------------------------|
b|----------------------------------------|
g|----------------------------------------|
d|---6-6h7p6-----4------6-6h7p6-----4-----|
a|----------------------------------------|
e|-0---------7-5---5--0---------7-5-------|

   A
e|----------------------------------------|
b|----------------------------------------|
g|----------------------------------------|
d|---6-6h7p6-----4------6-6h7p6--9--------|
a|-0------------------0--------------9----|
e|-----------7-5---5---------------7------|

(refrão)
E             B
She's a dove, she's a fucken nightmare
A             B
Unpredictable, it was my mistake to stay here
E                  B                 A
On the go and it's way too late to play
         B
I need a girl that i can train

   E           A          B                      E
e|-4-0---4----2-0---2----4-0---4----5-0---5--0--4-|
b|-----0---0------0---0------0---0------0---------|
G|------------------------------------------------| > x2
d|------------------------------------------------|
a|------------------------------------------------|
e|------------------------------------------------|

(verso 2) palm mute
E                B
I heard it once, i'm sure i heard it twice
E                      B
My dad used to give me all of his advice
A                            B
He would say you got to turn your back and run now
A                B
Come on son, you haven't got a chance now

  E
e|----------------------------------------|
b|----------------------------------------|
g|----------------------------------------|
d|---6-6h7p6-----4------6-6h7p6-----4-----|
a|----------------------------------------|
e|-0---------7-5---5--0---------7-5-------|

  A
e|----------------------------------------|
b|----------------------------------------|
g|----------------------------------------|
d|---6-6h7p6-----4------6-6h7p6--9--------|
a|-0------------------0--------------9----|
e|-----------7-5---5---------------7------|

(refrão)
E            B
She's a dove, she's a fucken nightmare
A             B
Unpredictable, it was my mistake to stay here       2x
E                  B                 A
On the go and it's way too late to play
         B
I need a girl that i can train

(final)
E        B               E
I need a girl that i can train
         B               A
I need a girl that i can train
B                         A
Turn your back and run now
B
You haven't got a chance now

(solo final 2x) 

   E           B          E          B
e|-4-0---0----2-0---0----4-0---0----5-0---0-------|
b|-----0---0------0---0------0---0------0----0----|
g|------------------------------------------------|
d|------------------------------------------------|
a|------------------------------------------------|
e|------------------------------------------------|

   A          B          A          B
e|4-0---0----2-0---0----4-0---0----5-0---0--2-----|
b|----0---0------0---0------0---0------0----------|
g|------------------------------------------------|
d|------------------------------------------------|
a|------------------------------------------------|
e|------------------------------------------------|

Clipes