busca

Dysentary Gary

blink-182

Tom: D
[Intro]

E|----------------------------------------------------------------|
B|----------------------------------------------------------------|
G|----------------------------------------------------------------|
D|-4-4-4---------5-5-5-4-4-4----------------4-4-4-----------------|
A|--------5-5-5---------------5-5-5-5--------------0-0-0--4-4-4h5-|
E|------------------------------------3-3-3-----------------------|

E|----------------------------------------------------------------|
B|----------------------------------------------------------------|
G|----------------------------------------------------------------|
D|-4-4-4---------5-5-5-4-4-4----------------4-4-4-----------------|
A|--------5-5-5---------------5-5-5-5--------------0-0-0--4-4-4h5-|
E|------------------------------------3-3-3-----------------------|

[Primeira Parte]

   D5                        G5           A5
E|----------------------------------------------------------------|
B|----------------------------------------------------------------|
G|-7-x-x-x-x----7-x-x-x-x------x-x-x-x----2---------2---------2---|
D|-7-x-x-x-x-4--7-x-x-x-x-4--5-x-x-x-x-5--2---------2---------2---|
A|-5-x-x-x-x-5--5-x-x-x-x-5--5-x-x-x-x-5--0---------0---------0---|
E|---x-x-x-x------x-x-x-x----3-x-x-x-x-3----3-3-3-3---3-3-3-3---3-|
 P.M . . . .      . . . .      . . . .      . . . .   . . . .

D5 
  Got a lotta heart ache
D5 
  He's a fucking weasel
G5
  His issues make my mind ache
A5
  Wanna make a deal
D5
  Cause I love your little motions
D5
  You with your pigtails
G5
  What a nice creation
A5
  Worth another night in jail

[Pré-Refrão]

    D                  G          A
E|-----------------------------------------------|
B|--3-3-3-3-3-3-3-3----3-3-3-3----2-2-2-2--------|
G|--2-2-2-2-2-2-2-2----0-0-0-0----2-2-2-2--------|
D|--0-0-0-0-0-0-0-0----0-0-0-0----2-2-2-2--------|
A|---------------------x-x-x-x----0-0-0-0--------|
E|---------------------3-3-3-3-------------------|

[Refrão]

D5
He's a player diarrhea giver
Tried to grow his hair out                  
When friends were listening to slayer
G5
I would like to find him friday night
A5
Hanging out with mom and
Trying on his father's tights

E|-15-14---------------|
B|-------15------------|
G|----------12-12-12---|
D|---------------------|
A|---------------------|
E|---------------------|

G5
Life just sucks
  A5
I lost the one
    D5
I'm giving up
    B5
She found someone but
        G5
There's plenty more
A5        B5   A/C#  D5    
Girls are such a    drag

E|----------------------------------------------------------------|
B|----------------------------------------------------------------|
G|----------------------------------------------------------------|
D|-4-4-4---------5-5-5-4-4-4----------------4-4-4-----------------|
A|--------5-5-5---------------5-5-5-5--------------0-0-0--4-4-4h5-|
E|------------------------------------3-3-3-----------------------|

E|----------------------------------------------------------------|
B|----------------------------------------------------------------|
G|----------------------------------------------------------------|
D|-4-4-4---------5-5-5-4-4-4----------------4-4-4-----------------|
A|--------5-5-5---------------5-5-5-5--------------0-0-0--4-4-4h5-|
E|------------------------------------3-3-3-----------------------|

[Segunda Parte]

   D5                        G5           A5
E|----------------------------------------------------------------|
B|----------------------------------------------------------------|
G|-7-x-x-x-x----7-x-x-x-x------x-x-x-x----2---------2---------2---|
D|-7-x-x-x-x-4--7-x-x-x-x-4--5-x-x-x-x-5--2---------2---------2---|
A|-5-x-x-x-x-5--5-x-x-x-x-5--5-x-x-x-x-5--0---------0---------0---|
E|---x-x-x-x------x-x-x-x----3-x-x-x-x-3----3-3-3-3---3-3-3-3---3-|
 P.M . . . .      . . . .      . . . .      . . . .   . . . .

D5
  So all you little ladies
D5
  Be sure to choose the right guys
G5
  You'll come back to me maybe
A5
  I'll shower you with lies
D5          
  Got a lotta heart ache
D5
  He's a fucking weasel
G5
  Decisions make my mind ache
A5
  Wanna make a deal

[Pré-Refrão]

D
Ease away the problems 
And the pain the girl 
Chose the guy 
That makes you wanna
Kick and scream
G
All along you wish 
That she would stay
A     
Fuck the guy that took
And ran away yeah

[Refrão]

D5
He's a player diarrhea giver
Tried to grow his hair out                  
When friends were listening to slayer
G5
I would like to find him friday night
A5
Hanging out with mom and
Trying on his father's tights

E|-15-14---------------|
B|-------15------------|
G|----------12-12-12---|
D|---------------------|
A|---------------------|
E|---------------------|

G5
Life just sucks
  A5
I lost the one
    D5
I'm giving up
    B5
She found someone but
        G5
There's plenty more
A5        B5   A/C#  D5    
Girls are such a    drag

E|---------------------------------------------------------------|
B|---------------------------------------------------------------|
G|---------------------------------------------------------------|
D|-4-5-4---2---------4-5-4---2---0----4-5-4---2--------4-5-4-----|
A|-5-----------0-----5---------0------5-----------0----5------5--|
E|-----------3----------------------------------3-------------3--|

G5
Fuck this place
  A5
I lost the war
  D5
I hate you all
     B5
Your mom's a whore
G5
Where's my dog?
      A5
Cause girls
    B5   A/C#  D5   
Are such  a    drag

[Final]

E|--------------------------------------------------|
B|--------------------------------------------------|
G|-------------------------------------------7~~~~--|
D|-4-4-4-4----------5-5-5-5-4-4-4-4----------7~~~~--|
A|---------5-5-5-5-----------------------0-0-5~~~~--|
E|----------------------------------3-3---------~---|

Clipes