busca

Easy Target

blink-182

Tom: E
Intro: F# (8x)    A (4x)     E (4X)   faça isso umas 4 vezes
    -----------------
    -----------------
    -----------------
    --4----7----2----
    --4----7----2----
    --2----5----0----


    C#    B    A     D  
   ------------------------
   ------------------------
   ------------------------
   -11----9----7----12-----
   -11----9----7----12-----
   --9----7----5----10-----
C#                                            B C# A
All her signals are getting lost in the ether,       (That's what shewanted)

C#                                       B C# A
She's a landslidewith a city beneath her,      (That's what shewanted)

C#                                            B C# A
So take a good look, so you'll never forget it,      (That's what shewanted)

C#                                             B C# A
Take a deep breath, I know I'm gonna regret it,      (That's what shewanted) 

F#                           A       E  
Holly's looking dry looking for easy target

F#                                A                E
Let her slit my throat give her ammo if she'll use it

F#                         A             E 
Caution on the road lies lies and hidden danger.

F#                               A             E
Southern California's breeding mommy's little monster.

C#                                             B C# D
She's got a mission, and I'm collateral damage.      (That's what shewanted)

C#                                          B C# D
She's the flower that you place on my casket.     (That's what shewanted)

C#                                           B C# D
Savor the moment cause the memory's fleeting.

C#                                             B C# D
Take a photograph, as the last train is leaving.

F#                          A         E         
Holly's looking dry looking for easy target

F#                                A              E
Let her slit my throat give her ammo if she'll use it

F#                        A               E 
Caution on the road lies lies and hidden danger.

F#                              A              E
Southern California's breeding mommy's little monster.

 D     A     E          
------------------------------
------------------------------
-7----------------------------
-7-----7-----2----------------
-5-----7-----2----------------
-------5-----0----------------

D                            A           E
Better run run run run run (Holly let me out)

D                            A           E
Better run run run run run (Holly let me out)

D                            A            E
Better run run run run run (Holly let me out)

D                                    A           E
Better run run run run run run run (Holly let me out)

Final: 9x
------------------------------------------
------------------------------------------
------------------------------------------
-4/6/7/9/7-7/9/11-11/10/9-9---------------
-4/6/7/9/7-7/9/11-11/10/9-9---------------
-2/4/5/7/5-5/7/9-9/10/7---7---------------

 Obs:No final..começa rápido, depois vai diminuindo a velocidade aos poucos..!

Clipes