First Date Live

Blink-182

C5
134
X355XX
Tom: G
(Live)

PS: Música inteira com distorção

#1t1#                     Riff 1
#1t2#e|-0----------|-------------|-------------|-------------|     
B|--1-----1---|-3-1-----1---|-3-1-----1---|-3-1---0-----|     
G|----0-----0-|-----0-----0-|-----0-----0-|-----0-------| 
D|------------|-------------|-------------|-------------|       
A|------------|-------------|-------------|-------------|     
E|------------|-------------|-------------|-------------|    #/1t2##/1t1#

#2t1#   Riff 2          Riff 3
#2t2#e|--------|       e|-----|
B|--------|       B|-----|
G|--5~~---|       G|-(5)-| ( Abafado   
D|--5~~---|       D|-----|
A|--3~~---|       A|-----|
E|--------|       E|-----|#/2t2##/2t1#

#3t1#                       Riff 4
#3t2#e|--x-x-x-x-----x-x-x-x-----x-x-x-x-----x-x-x-----x-x-x-|
B|--x-x-x-x-----x-x-x-x-----2-2-2-2-----x-x-x-----x-x-x-|
G|--5-5-5-5-----4-4-4-4-----2-2-2-2-----x-x-x-----x-x-x-|
D|--5-5-5-5-----5-5-5-5-----2-2-2-2-----3-3-3-----5-5-5-|
A|--3-3-3-5-----2-2-2-2-----------------3-3-3-----5-5-5-|
E|--------------------------------------1-1-1-----3-3-3-|#/3t2##/3t1#

#4t1#                       Riff 5
#4t2#e|--x-x-x-x-----x-x-x-x-----x-x-x-x-----x-x-x-----x-x-x-|
B|--x-x-x-x-----x-x-x-x-----2-2-2-2-----x-x-x-----x-x-x-|
G|--5-5-5-5-----4-4-4-4-----2-2-2-2-----x-x-x-----x-x-x-|
D|--5-5-5-5-----5-5-5-5-----2-2-2-2-----3-3-3-----5-5-5-|
A|--3-3-3-5-----2-2-2-2-----------------3-3-3-----5-5-5-|
E|--------------------------------------1-1-1-----3-3-3-|#/4t2##/4t1#

#5t1#            Riff 6 
#5t2#e|--x-x-x---x-x-x---x-x-x---x-x-x--|
B|--x-x-x---x-x-x---x-x-x---x-x-x--|
G|--5-5-5---x-x-x---x-x-x---x-x-x--|
D|--5-5-5---2-2-2---3-3-3---5-5-5--| ( Abafado)
A|--3-3-3---2-2-2---3-3-3---5-5-5--|
E|----------0-0-0---1-1-1---3-3-3--|#/5t2##/5t1#

                Riff 7

#6t1##6t2#e|--x-x-x---x-x/x-x---x-x/ x-x---x-x-x-|
B|--x-x-x---x-x/x-x---x-x/ x-x---x-x-x-|
G|--5-5-5---9-9/5-5--10-10 5-5---7-7-7-|
D|--x-x-x---x-x/x-x---x-x/ x-x---x-x-x-|
A|--3-3-3---7-7/3-3---8-8/ 3-3---5-5-5-|
E|-------------------------------------|#/6t2##/6t1#

#7t1#                              Riff 8
#7t2#e|--x-x-x--x-x-x--x-x-x--x-x-x--x-x-x--x-x-x--x-x-x--x--x--x---x-x-x--x-x-x--|
B|--x-x-x--x-x-x--x-x-x--x-x-x--x-x-x--x-x-x--x-x-x--x--x--x---x-x-x--x-x-x--|
G|--5-5-5--4-4-4--5-5-5--7-7-7--5-5-5--9-9-9--5-5-5--10-10-10--5-5-5--7-7-7--|
D|--5-5-5--5-5-5--5-5-5--7-7-7--5-5-5--9-9-9--5-5-5--10-10-10--5-5-5--7-7-7--|
A|--3-3-3--2-2-2--3-3-3--5-5-5--3-3-3--7-7-7--3-3-3--8--8--8---3-3-3--5-5-5--|
E|---------------------------------------------------------------------------|#/7t2##/7t1#

Ordem da música:

Intro: Riff 1 > Soar Riff 2

Verso 1:

#8t1##8t2#|---- Nessa parte fica só o baixo ----|#/8t2##/8t1#
In the car, I just can't wait
To pick you up on our very first date       
Is it cool if I hold your hand?
Is it wrong if I think it's lame to dance?

#9t1##9t2#|---- Agora entra o Riff 3 ----|#/9t2##/9t1#

Do you like my stupid hair?
Would you guess that I didn't know what to wear?
I'm just scared of what you think
You make me nervous so I really can't eat

Pré-refrão:

#10t1##10t2#|----------------- Riff 4 -----------------|#/10t2##/10t1#
Lets go! Don't wait! This night's almost over!
Honest, let's make this night last forever!

Refrão:

#11t1##11t2#|----------------- Riff 5 -----------------| #/11t2##/11t1#
Forever and ever, let's make this last forever!
Forever and ever, let's make this last forever!

Intro:Riff 1 > Soar Riff 2

Verso 2:

#12t1##12t2#|---- Nessa parte fica só o baixo ----|#/12t2##/12t1#

When you smile, I melt inside...
I'm not worthy for a minute of your time
I really wish it was only me and you
I'm jealous of everybody in the room

#13t1##13t2#|---- Agora entra o Riff 3 ----|#/13t2##/13t1#

Please, don't look at me with those eyes
Please, don't hint that you're capable of lies
I dread a thought of our very first kiss
A target that I'm probably gonna miss...

Pré-refrão:

#14t1##14t2#|----------------- Riff 4 -----------------|#/14t2##/14t1#
Lets go! Don't wait! This night's almost over!
Honest, let's make this night last forever!

Refrão:

#15t1##15t2#|----------------- Riff 5 -----------------| #/15t2##/15t1#
Forever and ever, let's make this last forever!
Forever and ever, let's make this last forever!

Pós-Refrão: Riff 6 (abafado) 2x

Interlude: Riff 7  2x

           Riff 8  1x

Pré-refrão:

#16t1##16t2#|----------------- Riff 4 -----------------|#/16t2##/16t1#
Lets go! Don't wait! This night's almost over!
Honest, let's make this night last forever!

Refrão:

#17t1##17t2#|----------------- Riff 5 -----------------| #/17t2##/17t1#
Forever and ever, let's make this last forever!
Forever and ever, let's make this last forever!

#18t1##18t2#|-------- Tocar riff 1 aqui e cantar ---------|#/18t2##/18t1#
Forever and ever, let's make this last forever!
Forever and ever, let's make this last forever!

#19t1#Final:   C5
#19t2#       e|-x-|   
       B|-x-|
       G|-5-|
       D|-5-| 
       A|-3-|
       E|---|#/19t2##/19t1#

Espero que entendam.Está tudo do jeito que o Tom toca.Então não tem erro, só ouvir e pegar ! 
Composição: T. Hales / Thabiso NkhereanyeColaboração e revisão: Fabrício Santos