busca

First Date

Blink-182

Tom: C
[Intro]

    C5         D5         F5        G5
E|--0-------------------------------------------------|
B|----1---1----3-1---1----3-1---1----3-1---0----------|
G|------0---0------0---0------0---0------0---0--------|
D|----------------------------------------------------|
A|----------------------------------------------------|
E|----------------------------------------------------|
 
  C5          D5         F5         G5
E|-0--------------------------------------------------|
B|---1---1----3-1---1----3-1---1----3-1---0-----------|
G|-----0---0------0---0------0---0------0---0---5~~~~-|
D|----------------------------------------------x-----|
A|----------------------------------------------3~~~~-|
E|--------------------------------------------------~-|

[Verso 01]

C5
In the car I just can't wait,
G5               F5
to pick you up on our very first date
C5
Is it cool if I hold your hand?
G5                 F5
Is it wrong if I think it's lame to dance?

E|----------------------------------|
B|----------------------------------|
G|--5-5-5---5-5-5---5-5-5---5-5-5---|
D|----------------------------------|
A|----------------------------------|
E|----------------------------------|

C5
Do you like my stupid hair?
G5                   F5
Would you guess that I didn't know what to wear?
C5
I'm too scared of what you think
G5                  F5
You make me nervous so I really can't eat

[Refrão]

   C5    G/B    A5    F5   G5
E|-----------------------------|
B|-----------------------------|
G|-5------4------2-------------|
D|-5------5------2----3----5---|
A|-3------2------0----3----5---|
E|--------------------1----3---|

C5       G/B            A5        F5    G5
Let's go, don't wait, this night's almost over
C5       G/B            A5        F5    G5
Honest, let's make this night last forever
C5       G/B            A5        F5    G5
Forever and ever, let's make this last forever
C5       G/B            A5        F5    G5
Forever and ever, let's make this last forever

[Introdução]

    C5         D5         F5        G5
E|--0-------------------------------------------------|
B|----1---1----3-1---1----3-1---1----3-1---0----------|
G|------0---0------0---0------0---0------0---0--------|
D|----------------------------------------------------|
A|----------------------------------------------------|
E|----------------------------------------------------|
 
  C5          D5         F5         G5
E|-0--------------------------------------------------|
B|---1---1----3-1---1----3-1---1----3-1---0-----------|
G|-----0---0------0---0------0---0------0---0---5~~~~-|
D|----------------------------------------------x-----|
A|----------------------------------------------3~~~~-|
E|--------------------------------------------------~-|

[Verso 02]

C5
When you smile, I melt inside
G5                 F5
I'm not worthy for a minute of your time
C5
I really wish it was only me and you
G5               F5
I'm jealous of everybody in the room

E|----------------------------------|
B|----------------------------------|
G|--5-5-5---5-5-5---5-5-5---5-5-5---|
D|----------------------------------|
A|----------------------------------|
E|----------------------------------|

C5
Please don't look at me with those eyes
G5                 F5
Please don't hint that you're capable of lies
C5
I dread the thought of our very first kiss
G5                 F5
A target that i'm probably gonna miss

[Refrão]

C5       G/B            A5        F5    G5
Let's go, don't wait, this night's almost over
C5       G/B            A5        F5    G5
Honest, let's make this night last forever
C5       G/B            A5        F5    G5
Forever and ever, let's make this last forever
C5       G/B            A5        F5    G5
Forever and ever, let's make this last forever

[Ponte]

E|-----------------------------------------------------------|
B|-----------------------------------------------------------|
G|-----------------------------------------------------------|
D|-----------------------------------------------------------|
A|-3-3-3-3-3-3-----------------------------------------------|
E|---------------0-0-0-0-0-0---1-1-1-1-1-1---3-3-3-3-3-3-3-3-|
  p.m ........   ...........   ...........   ...............

E|-----------------------------------------------------------|
B|-----------------------------------------------------------|
G|-----------------------------------------------------------|
D|-----------------------------------------------------------|
A|-3-3-3-3-3-3-----------------------------------------------|
E|---------------0-0-0-0-0-0---1-1-1-1-1-1---3-3-3-3-3-3-3-3-|
  p.m ........   ...........   ...........   ...............

E|--------------------------------------------------------------|
B|--------------------------------------------------------------|
G|-5-5-5-5---9-9-9-9\5-5-5-5--10-10-10-10\5-5-5-5---7-7-7-7-7-7-|
D|-x-x-x-x---x-x-x-x\x-x-x-x---x--x--x--x\x-x-x-x---x-x-x-x-x-x-|
A|-3-3-3-3---7-7-7-7\3-3-3-3---8--8--8--8\3-3-3-3---5-5-5-5-5-5-|
E|--------------------------------------------------------------|

E|--------------------------------------------------------------|
B|--------------------------------------------------------------|
G|-5-5-5-5---9-9-9-9\5-5-5-5--10-10-10-10\5-5-5-5---7-7-7-7-7-7-|
D|-x-x-x-x---x-x-x-x\x-x-x-x---x--x--x--x\x-x-x-x---x-x-x-x-x-x-|
A|-3-3-3-3---7-7-7-7\3-3-3-3---8--8--8--8\3-3-3-3---5-5-5-5-5-5-|
E|--------------------------------------------------------------|

[Refrão]

C5       G/B            A5        F5    G5
Let's go, don't wait, this night's almost over
C5       G/B            A5        F5    G5
Honest, let's make this night last forever
C5       G/B            A5        F5    G5
Forever and ever, let's make this last forever
C5       G/B            A5        F5    G5
Forever and ever, let's make this last forever
C5       G/B            A5        F5    G5
Forever and ever, let's make this last forever
C5       G/B            A5        F5    G5
Forever and ever, let's make this last forever

[Final] C5

Clipes