First Date

Blink-182

A5
12
X022XX
C5
134
X355XX
D5
134
X577XX
F5
134
133XXX
G/B
123
X20033
G5
134
355XXX
Tom: G
[Intro]

#1t1#    C5         D5         F5        G5
#1t2#E|--0-------------------------------------------------|
B|----1---1----3-1---1----3-1---1----3-1---0----------|
G|------0---0------0---0------0---0------0---0--------|
D|----------------------------------------------------|
A|----------------------------------------------------|
E|----------------------------------------------------|#/1t2##/1t1#
 
#2t1#  C5          D5         F5         G5
#2t2#E|-0--------------------------------------------------|
B|---1---1----3-1---1----3-1---1----3-1---0-----------|
G|-----0---0------0---0------0---0------0---0---5~~~~-|
D|----------------------------------------------x-----|
A|----------------------------------------------3~~~~-|
E|--------------------------------------------------~-|#/2t2##/2t1#

[Verso 01]

C5
In the car I just can't wait,
G5               F5
to pick you up on our very first date
C5
Is it cool if I hold your hand?
G5                 F5
Is it wrong if I think it's lame to dance?

#3t1##3t2#E|----------------------------------|
B|----------------------------------|
G|--5-5-5---5-5-5---5-5-5---5-5-5---|
D|----------------------------------|
A|----------------------------------|
E|----------------------------------|#/3t2##/3t1#

C5
Do you like my stupid hair?
G5                   F5
Would you guess that I didn't know what to wear?
C5
I'm too scared of what you think
G5                  F5
You make me nervous so I really can't eat

[Refrão]

#4t1#   C5    G/B    A5    F5   G5
#4t2#E|-----------------------------|
B|-----------------------------|
G|-5------4------2-------------|
D|-5------5------2----3----5---|
A|-3------2------0----3----5---|
E|--------------------1----3---|#/4t2##/4t1#

C5       G/B            A5        F5    G5
Let's go, don't wait, this night's almost over
C5       G/B            A5        F5    G5
Honest, let's make this night last forever
C5       G/B            A5        F5    G5
Forever and ever, let's make this last forever
C5       G/B            A5        F5    G5
Forever and ever, let's make this last forever

[Introdução]

#5t1#    C5         D5         F5        G5
#5t2#E|--0-------------------------------------------------|
B|----1---1----3-1---1----3-1---1----3-1---0----------|
G|------0---0------0---0------0---0------0---0--------|
D|----------------------------------------------------|
A|----------------------------------------------------|
E|----------------------------------------------------|#/5t2##/5t1#
 
#6t1#  C5          D5         F5         G5
#6t2#E|-0--------------------------------------------------|
B|---1---1----3-1---1----3-1---1----3-1---0-----------|
G|-----0---0------0---0------0---0------0---0---5~~~~-|
D|----------------------------------------------x-----|
A|----------------------------------------------3~~~~-|
E|--------------------------------------------------~-|#/6t2##/6t1#

[Verso 02]

C5
When you smile, I melt inside
G5                 F5
I'm not worthy for a minute of your time
C5
I really wish it was only me and you
G5               F5
I'm jealous of everybody in the room

#7t1##7t2#E|----------------------------------|
B|----------------------------------|
G|--5-5-5---5-5-5---5-5-5---5-5-5---|
D|----------------------------------|
A|----------------------------------|
E|----------------------------------|#/7t2##/7t1#

C5
Please don't look at me with those eyes
G5                 F5
Please don't hint that you're capable of lies
C5
I dread the thought of our very first kiss
G5                 F5
A target that i'm probably gonna miss

[Refrão]

C5       G/B            A5        F5    G5
Let's go, don't wait, this night's almost over
C5       G/B            A5        F5    G5
Honest, let's make this night last forever
C5       G/B            A5        F5    G5
Forever and ever, let's make this last forever
C5       G/B            A5        F5    G5
Forever and ever, let's make this last forever

[Ponte]

#8t1##8t2#E|-----------------------------------------------------------|
B|-----------------------------------------------------------|
G|-----------------------------------------------------------|
D|-----------------------------------------------------------|
A|-3-3-3-3-3-3-----------------------------------------------|
E|---------------0-0-0-0-0-0---1-1-1-1-1-1---3-3-3-3-3-3-3-3-|#/8t2##/8t1#
  p.m ........   ...........   ...........   ...............

#9t1##9t2#E|-----------------------------------------------------------|
B|-----------------------------------------------------------|
G|-----------------------------------------------------------|
D|-----------------------------------------------------------|
A|-3-3-3-3-3-3-----------------------------------------------|
E|---------------0-0-0-0-0-0---1-1-1-1-1-1---3-3-3-3-3-3-3-3-|#/9t2##/9t1#
  p.m ........   ...........   ...........   ...............

#10t1##10t2#E|--------------------------------------------------------------|
B|--------------------------------------------------------------|
G|-5-5-5-5---9-9-9-9\5-5-5-5--10-10-10-10\5-5-5-5---7-7-7-7-7-7-|
D|-x-x-x-x---x-x-x-x\x-x-x-x---x--x--x--x\x-x-x-x---x-x-x-x-x-x-|
A|-3-3-3-3---7-7-7-7\3-3-3-3---8--8--8--8\3-3-3-3---5-5-5-5-5-5-|
E|--------------------------------------------------------------|#/10t2##/10t1#

#11t1##11t2#E|--------------------------------------------------------------|
B|--------------------------------------------------------------|
G|-5-5-5-5---9-9-9-9\5-5-5-5--10-10-10-10\5-5-5-5---7-7-7-7-7-7-|
D|-x-x-x-x---x-x-x-x\x-x-x-x---x--x--x--x\x-x-x-x---x-x-x-x-x-x-|
A|-3-3-3-3---7-7-7-7\3-3-3-3---8--8--8--8\3-3-3-3---5-5-5-5-5-5-|
E|--------------------------------------------------------------|#/11t2##/11t1#

[Refrão]

C5       G/B            A5        F5    G5
Let's go, don't wait, this night's almost over
C5       G/B            A5        F5    G5
Honest, let's make this night last forever
C5       G/B            A5        F5    G5
Forever and ever, let's make this last forever
C5       G/B            A5        F5    G5
Forever and ever, let's make this last forever
C5       G/B            A5        F5    G5
Forever and ever, let's make this last forever
C5       G/B            A5        F5    G5
Forever and ever, let's make this last forever

[Final] C5
Composição: blink-182Colaboração e revisão: Renan LuizAlan Meneghettiluiz henrique