busca

Generational Divide

Blink-182

Tom: C
[Introdução] 

  A5                  G5    F5              C             B
E|-----------------------------------------------------------|
B|-----------------------------------------------------------|
G|2-2---2-2-2---2-2-------------------------5-5--5-5--5---4--|
D|2-2---2-2-2---2-2----5----3-3---3-3-3-3---x-x--x-x--x---x--| 
A|0-0---0-0-0---0-0----5----3-3---3-3-3-3---3-3--3-3--3---2--|
E|---------------------3----1-1---1-1-1-1--------------------|

[Verso]

   A5                     F5
E|--------------------------------------------|
B|--------------------------------------------|
G|--------------------------------------------|
D|-----------------------------2---------2----|
A|------7---------7--------------3---------3--|
E|-5--5---8--5--5---8-----1--1-------1--1-----|

Is it better, is it better now?
Are we better, are we better now?
Is it better, is it better now?
Are we better, are we better now?

   A5            E5            F5            C             B
E|-------------|-------------|-------------|------------------|
B|-------------|-------------|-------------|------------------|
G|-2-2-2-2-2-2-|-------------|-------------|-5-5--5-5--5---4--|
D|-2-2-2-2-2-2-|-2-2-2-2-2-2-|-3-3-3-3-3-3-|-x-x--x-x--x---x--|
A|-0-0-0-0-0-0-|-2-2-2-2-2-2-|-3-3-3-3-3-3-|-3-3--3-3--3---2--|
E|-------------|-0-0-0-0-0-0-|-1-1-1-1-1-1-|------------------|

All we needed was a lifeline
(Is it better, is it better now?)

We swore we'd be better than the last time
(Are we better, are we better now?)

Donate, tell me that you're all right
(Is it better, is it better now?)

I'm not the generational divide
(Are we better, are we better now?)

[Final]

   A5            E5                 F5            C             B
E|--------------|-----------------|-------------|-----------------|
B|--------------|-----------------|-------------|-----------------|
G|-2-2-2-2-2-2--|-----------------|-------------|-5-5--5-5--5---4-|
D|-2-2-2-2-2-2--|-2-2-2-2-2-2-----|-3-3-3-3-3-3-|-x-x--x-x--x---x-|
A|-0-0-0-0-0-0--|-2-2-2-2-2-2-----|-3-3-3-3-3-3-|-3-3--3-3--3---2-|
E|--------------|-0-0-0-0-0-0-----|-1-1-1-1-1-1-|-----------------|

   A5             E5                F5            C           B
E|--------------|-----------------|-------------|-----------------|
B|--------------|-----------------|-------------|-----------------|
G|-2-2-2-2-2----|-----------------|-------------|-5---5---5---4---|
D|-2-2-2-2-2----|-2---2---2---2-2-|-3-3-3-3-3---|-x---x---x---4---|
A|-0-0-0-0-0----|-2---2---2---2-2-|-3-3-3-3-3---|-3---3---3---2---|
E|--------------|-0---0---0---0-0-|-1-1-1-1-1---|-----------------|

Clipes

Cifra Club Pro

Aproveite o Cifra Club com benefícios exclusivos e sem anúncios
Cifra Club Pro
Aproveite o Cifra Club com benefícios exclusivos e sem anúncios