Generational Divide

Blink-182

A5
12
X022XX
B
234
X24442
C
123
X32010
E5
12
022XXX
F5
134
133XXX
G5
134
355XXX
Tom: G
[Introdução] 

#1t1#  A5                  G5    F5              C             B
#1t2#E|-----------------------------------------------------------|
B|-----------------------------------------------------------|
G|2-2---2-2-2---2-2-------------------------5-5--5-5--5---4--|
D|2-2---2-2-2---2-2----5----3-3---3-3-3-3---x-x--x-x--x---x--| 
A|0-0---0-0-0---0-0----5----3-3---3-3-3-3---3-3--3-3--3---2--|
E|---------------------3----1-1---1-1-1-1--------------------|#/1t2##/1t1#

[Verso]

#2t1#   A5                     F5
#2t2#E|--------------------------------------------|
B|--------------------------------------------|
G|--------------------------------------------|
D|-----------------------------2---------2----|
A|------7---------7--------------3---------3--|
E|-5--5---8--5--5---8-----1--1-------1--1-----|#/2t2##/2t1#

Is it better, is it better now?
Are we better, are we better now?
Is it better, is it better now?
Are we better, are we better now?

#3t1#   A5            E5            F5            C             B
#3t2#E|-------------|-------------|-------------|------------------|
B|-------------|-------------|-------------|------------------|
G|-2-2-2-2-2-2-|-------------|-------------|-5-5--5-5--5---4--|
D|-2-2-2-2-2-2-|-2-2-2-2-2-2-|-3-3-3-3-3-3-|-x-x--x-x--x---x--|
A|-0-0-0-0-0-0-|-2-2-2-2-2-2-|-3-3-3-3-3-3-|-3-3--3-3--3---2--|
E|-------------|-0-0-0-0-0-0-|-1-1-1-1-1-1-|------------------|#/3t2##/3t1#

All we needed was a lifeline
(Is it better, is it better now?)

We swore we'd be better than the last time
(Are we better, are we better now?)

Donate, tell me that you're all right
(Is it better, is it better now?)

I'm not the generational divide
(Are we better, are we better now?)

[Final]

#4t1#   A5            E5                 F5            C             B
#4t2#E|--------------|-----------------|-------------|-----------------|
B|--------------|-----------------|-------------|-----------------|
G|-2-2-2-2-2-2--|-----------------|-------------|-5-5--5-5--5---4-|
D|-2-2-2-2-2-2--|-2-2-2-2-2-2-----|-3-3-3-3-3-3-|-x-x--x-x--x---x-|
A|-0-0-0-0-0-0--|-2-2-2-2-2-2-----|-3-3-3-3-3-3-|-3-3--3-3--3---2-|
E|--------------|-0-0-0-0-0-0-----|-1-1-1-1-1-1-|-----------------|#/4t2##/4t1#

#5t1#   A5             E5                F5            C           B
#5t2#E|--------------|-----------------|-------------|-----------------|
B|--------------|-----------------|-------------|-----------------|
G|-2-2-2-2-2----|-----------------|-------------|-5---5---5---4---|
D|-2-2-2-2-2----|-2---2---2---2-2-|-3-3-3-3-3---|-x---x---x---4---|
A|-0-0-0-0-0----|-2---2---2---2-2-|-3-3-3-3-3---|-3---3---3---2---|
E|--------------|-0---0---0---0-0-|-1-1-1-1-1---|-----------------|#/5t2##/5t1#
Composição: Mark Hoppus / Travis Barker / Matt SkibbaColaboração e revisão: Renan Luiz