busca

Genie In A Bottle

Blink-182

Tom: G
Genie In A Bottle (live)



RIFF 1
E |------------------------------------------------------------------------------------
B |------------------------------------------------------------------------------------
G |------------------------------------------------------------------------------------
D |------------------------7---7-7-7-7-7-7-7-------------------------------------------
A |--5---5-5-5-5-5-5-5-----5---5-5-5-5-5-5-5----10-10-10-10-10-10-10-10-10-10-10-------CASA DEZ
E |--3---3-3-3-3-3-3-3---------------------------8--8--8--8--8--8--8--8--8--8--8-------

E |-----------------------------------------
B |-----------------------------------------
G |-----------------------------------------
D |--7-7-7----------------------------------
A |--5-5-5--10-10-10-10-10-10---------------CASA DEZ
E |----------8--8--8--8--8--8---------------

RIFF 2
E |----------------------------------------------------------------------------------
B |----------------------------------------------------------------------------------
G |-----------------------7---7-7-7-7-7-7--------------------------------------------
D |--5---5-5-5-5-5-5------7---7-7-7-7-7-7-----10-10-10-10-10-10-10-10-10-10-10-------
A |--5---5-5-5-5-5-5------5---5-5-5-5-5-5-----10-10-10-10-10-10-10-10-10-10-10-------CASA DEZ
E |--3---3-3-3-3-3-3---------------------------8--8--8--8--8--8--8--8--8--8--8-------

FINAL
E |--------------------------------------
B |--------------------------------------
G |--------------------------------------
D |-10-9-5-------------------------------
A |-10-9-5-------------------------------
E |--8-7-3-------------------------------

aee essa musica é umas d ao vivo deles q naum tem em nenhum cd deles (q eu saiba)....

Clipes