busca

Ghost's On The Dance Floor

Blink-182

Tom: A
Intro:
G|-----------------------------
D|-----------------------------
A|--2--4--2--9--7--9--7--9-----
E|-----------------------------

Verso:
G|-----------------------------
D|-----------------------------  (2x)
A|--2--------------------------
E|------0---4--2--0------------

Starts at "its like the universe has left me..."
G|-------------------------------------------
D|-------------------------------------------
A|---2--4--11--9--7--------2--4--------------
E|---------------------------------4--2--0---

Refrão:
G|-----------------------------
D|-----------------------------
A|----2---4---7---9------------
E|-----------------------------

G|-------------------------------------------
D|-------------------------------------------
A|--2-----------------7----2----4---11---7---
E|------0--4--2--0---------------------------

Clipes

Cifra Club Pro

Aproveite o Cifra Club com benefícios exclusivos e sem anúncios
7 dias grátis
Cifra Club Pro
Aproveite o Cifra Club com benefícios exclusivos e sem anúncios
7 dias grátis