busca

Give Me One Good Reason

Blink-182

Tom: E
Intro:
E|--------------------------------------------------------------------
B|--------------------------------------------------------------------
G|---1----1-----------------1----1----------------1----1--1-----------
D|--2----2-2---42---42-2---2----2-2---42---42-2----2----2-----22-22-2-
A|-2----2-----2----2--2---2----2-----2----2--2---4----4--4---0--0--0--
E|--------------------------------------------------------------------

E|--------------------------------------------------------------------
B|--------------------------------------------------------------------
G|--1----1--1------------4444-----------------------------------------
D|---2----2-----44-44----4444-----------------------------------------
A|-4----4--4---2--2--2---2222-----------------------------------------
E|--------------------------------------------------------------------

Verso: (ABAFADO)
      E                   B
        Mom and Dad they quite don't understand it
      E                    B
        All the kids they laugh as if they planned it
      C#                      A
        Why do girls want to pierce their nose
      C#                    B
        And walk around in torn pantyhose, oh yeah


Riff 1: (2x ou mais)
E|---------------------------------|
B|---------------------------------|
G|--------1------------------------|
D|-2222---------1-2(hammer on)2----|
A|-2222----222---------------------|
E|-0000----------------------------|
           xxxx


Verso: (ABAFADO)
      E                               B
        I like the ones who say they listen to the punk rock
      E                             B
        I like the kids who fight against how they were brought up
      C#                                     A
        They hate the trends and think it's fucked to care
      C#                                  B
        It's cool when they piss people off with what they wear, oh yeah


-- Riff 1 --


Refrão:

      E           G#        B
        So give me one good reason
      E          G#    B            A
        Why we need to be like them
      E            G#          B
        Kids will have fun and offend
      E              G#         B           A
        They don't want to and don't fit in


-- Intro --


Verso: (ABAFADO)
      E                                  B
        Hate the jocks, the preps, the hippie-fuckin' scumbags
      E                              B
        Heavy-metallers with their awful, pussy hair bands
      C#                       A
        Counting seconds until we can get away
      C#                      B
        Ditchin' school almost every single day, oh yeah !


-- Riff 1 -- X 4


-- Refrão --


Riff 2:
E|--------------------------------------------------------------------
B|--------------------------------------------------------------------
G|---------111-222-11-------------------------------------------------
D|-222-444------------22-222-------222--------------------------------
A|---------------------------22222-----22222--------------------------
E|--------------------------------------------------------------------

E|--------------------------------------------------------------------
B|--------------------------------------------------------------------
G|---------111-222-11----------1---------1----------------------------
D|-222-444------------22-44444---22-4444---22-------------------------
A|--------------------------------------------------------------------
E|--------------------------------------------------------------------

E|--------------------------------------------------------------------
B|--------------------------------------------------------------------
G|---------111-222-11-------------------------------------------------
D|-222-444------------22-222-------222--------------------------------
A|---------------------------22222-----22222--------------------------
E|--------------------------------------------------------------------

E|--------------------------------------------------------------------
B|--------------------------------------------------------------------
G|---------111-222-11----------1---------1----------------------------
D|-222-444------------22-44444---22-4444---2-1-2~~~~~~----------------
A|--------------------------------------------------------------------
E|--------------------------------------------------------------------

-- Refrão --

Termina em E

Clipes