busca

Give Me One Good Reason

Blink-182

Tom: E
(intro)
     E     E                               E      E
E|-----------------|--------------------|-----------------|-------------------|
B|-----------------|--------------------|-----------------|-------------------|
G|-----1------1----|--------------------|-----1------1----|-------------------|
D|---2------2---2--|---4--2---4--2---2--|---2------2---2--|---4--2---4--2---2-|
A|-2------2--------|-2------2------2----|-2------2--------|-2------2------2---|
E|-----------------|--------------------|-----------------|-------------------|
                                                                                   
E|--------------------|--------------------|--------------------|---------------------(2-2-2-2-2)|
B|--------------------|--------------------|--------------------|--------------------------------|
G|-----1------1-------|--------------------|-----1------1-------|--------------------------------|
D|-------2------2---2-|---2--2---2--2---2--|-------2------2---2-|---4--2---4--2---2--------------|
A|-4-------4------4---|-0------0------0----|-4-------4------4---|-2------2------2----------------|
E|--------------------|--------------------|--------------------|--------------------------------|

(verso)
E|------------------|---------------|
B|------------------|---------------|
G|------------------|---------------|   (2x)
D|------------------|-4--4--4--4--4-|
A|-0--0--0--0--0--0-|-2--2--2--2--2-|
E|-2--2--2--2--2--2-|---------------|

E|------------------|---------------|------------------|---------------|---------------|
B|------------------|---------------|------------------|---------------|---------------|
G|------------------|---------------|------------------|---------------|------------1--|
D|-6--6--6--6--6--6-|-2--2--2--2--2-|-6--6--6--6--6--6-|-4--4--4--4--4-|---------------|
A|-4--4--4--4--4--4-|-0--0--0--0--0-|-4--4--4--4--4--4-|-2--2--2--2--2-|-2-2-2-2-2-----|
E|------------------|---------------|------------------|---------------|-0-0-0-0-0-----|

E|--------------------|
B|--------------------|
G|--------------------|    (2x)
D|-1--1--1----1--2--2-|
A|-2--2--2------------|
E|--------------------|

E|---------------|
B|---------------|
G|---------------|    (2x)
D|2-2-2-2-2-2-2-2|
A|2-2-2-2-2-2-2-2|
E|---------------|

E|---------------|
B|---------------|
G|---------------|    (2x)
D|4-4-4-4-4-4-4-4|
A|2-2-2-2-2-2-2-2|
E|---------------|

E|---------------|
B|---------------|
G|---------------|    (2x)
D|2-2-2-2-2-2-2-2|
A|2-2-2-2-2-2-2-2|
E|---------------|

E|---------------|---------------|
B|---------------|---------------|
G|---------------|---------------|
D|4-4-4-4-4-4-4-4|2-2-2-2-2-2-2-2|
A|2-2-2-2-2-2-2-2|0-0-0-0-0-0-0-0|
E|---------------|---------------|

(2ª parte)

(verso)

(solo)
E|-0--0--0--2--2--2--4--4--4-|-5--5--5--4--4--0--0-|-0--0--0---------------|-0--0--0--------------|
B|---------------------------|---------------------|----------0--0--0--0--0|---------0--0--0--0--0|
G|-2--2--2--4--4--4--5--6--6-|-7--7--7--6--6--2--2-|-2--2--2---------------|-2--2--2--------------|
D|---------------------------|---------------------|----------2--2--2--2--2|---------2--2--2--2--2|
A|---------------------------|---------------------|-----------------------|----------------------|
E|---------------------------|---------------------|-----------------------|----------------------|

E|-0--0--0--2--2--2--4--4--4-|-5--5--5--4--4--0--0-|-2--2--2--2--2--4--0--0--0--2--2--2--2--4--4--|
B|---------------------------|---------------------|----------------------------------------------|
G|-2--2--2--4--4--4--6--6--6-|-7--7--7--6--6--2--2-|-4--4--4--4--4--6--2--2--2--4--4--4--4--6--6--|
D|---------------------------|---------------------|----------------------------------------------|
A|---------------------------|---------------------|----------------------------------------------|
E|---------------------------|---------------------|----------------------------------------------|

E|-4--5--5--5--4--4--0--0--0-|---------------|---------------|-0--0--0--2--2--2--4--4--4--5--5--5|
B|---------------------------|-0--0--0--0--0-|-0--0--0--0--0-|-----------------------------------|
G|-6--7--7--7--6--6--2--2--2-|---------------|---------------|-2--2--2--4--4--4--6--6--6--7--7--7|
D|---------------------------|-2--2--2--2--2-|-2--2--2--2--2-|-----------------------------------|
A|---------------------------|---------------|---------------|-----------------------------------|
E|---------------------------|---------------|---------------|-----------------------------------|

E|-4--4--0--0--2--2--2--2--2--4--0--0--0|2--2--2--2--0-----0|
B|--------------------------------------|---------------4---|
G|-6--6--2--2--4--4--4--4--4--6--2--2--2|4--4--4--4--2-----2|
D|--------------------------------------|---------------6---|
A|--------------------------------------|-------------------|
E|--------------------------------------|-------------------|

(verso)

E|------|
B|------|
G|------|
D|-2----|
A|-2----|
E|-0----|

Clipes

Cifra Club Pro

Aproveite o Cifra Club com benefícios exclusivos e sem anúncios
7 dias grátis
Cifra Club Pro
Aproveite o Cifra Club com benefícios exclusivos e sem anúncios
7 dias grátis