| / | 2x / ________________________2x_____________________" /> | / | 2x / ________________________2x_____________________">
busca

Going Away To College

Blink-182

Tom: B
Intro: (a introdução baseia-se nos acordes B e B/E)     
________________________________________________________
                                                        | 
e|-2-2-2-2-2--2-2-2-2-2-2--2-2-2-2-2-2--2-2-2-2-2--|    |
B|-4-4-4-4-4--2-2-2-2-2-2--4-4-4-4-4-4--2-2-2-2-2--|    |
G|-4-4-4-4-4--4-4-4-4-4-4--4-4-4-4-4-4--4-4-4-4-4--|    |
D|-4-4-4-4-4--4-4-4-4-4-4--4-4-4-4-4-4--4-4-4-4-4--|    |
A|-------------------------------------------------|    |
E|-------------------------------------------------|    |
                                                        | 2x
e|-2-2-2-2-2--2-2-2-2-2-2--2-2-2-2-2-2--2-2-2-2-2--|    |
B|-4-4-4-4-4--2-2-2-2-2-2--4-4-4-4-4-4--2-2-2-2-2--|    |
G|-4-4-4-4-4--4-4-4-4-4-4--4-4-4-4-4-4--4-4-4-4-4--|    |
D|-2-2-2-2-2--2-2-2-2-2-2--2-2-2-2-2-2--2-2-2-2-2--|    |
A|-------------------------------------------------|    |
E|-------------------------------------------------|    |
________________________________________________________|

  ________________________2x_______________________
e|---------------------------------------------------|
B|-----------4-----------4-----------4---------------|
G|------4----------4-----------4------------6------6-|
D|--------------------------2-----2-----4------4-----|
A|---2-----2----2-----2------------------------------|
E|---------------------------------------------------|

Verso: (Tocado em Power Chord) OBS.: os acordes entre parenteses são feitos apenas pelo BAIXO.

B
 Please take me by the hand
(E)          (F#)               
 It's so cold out tonight
(B)
  I'll put blankets on the bed
(E)          (F#)                             
  I wont turn out the light just 

B             E       F#
Dont forget to think about me and I
B
Wont forget you
E               F#
 I'll write you once a week she said

  ________________________2x_______________________
e|---------------------------------------------------|
B|-----------4-----------4-----------4---------------|
G|------4----------4-----------4------------6------6-|
D|--------------------------2-----2-----4------4-----|
A|---2-----2----2-----2------------------------------|
E|---------------------------------------------------|

Verso:

B
 Why does it feel the same
   (E)            (F#)
To fall in love or break it off
    (B)
And if young love is just a game
    (E)          (F#)
Then I must have missed the kick off

B               E          F#
Don't depend on me to ever follow through on 
B
Anything but 
E              F#
I'd go through hell for you and


Refrão: (Tocado em Power Chord)

e|--------------------------------------------------|
B|--------------------------------------------------|
G|-8-8-8-8--9-9-9-9--4-4-4-4------------------------|
D|-8-8-8-8--9-9-9-9--4-4-4-4--4-4-4-4---------------|
A|-6-6-6-6--7-7-7-7--2-2-2-2--4-4-4-4---------------|
E|----------------------------2-2-2-2---------------|

D#        E                B    F#
I haven't been this scared in a long time
D#         E          B              F#
And I'm so unprepared so here's your valentine
D#         E            B         F#
Bouquet of clumsy words, a simple melody
D#              E
This world's an ugly place
B             F#
But you're so beautiful to me

    ________________________2x_______________________
e|---------------------------------------------------|
B|-----------4-----------4-----------4---------------|
G|------4----------4-----------4------------6------6-|
D|--------------------------2-----2-----4------4-----|
A|---2-----2----2-----2------------------------------|
E|---------------------------------------------------|

Verso: (Junto com a TAB abaixo!)

* = PALM MUTE (ATENÇÃO!)

e|-----------------------------------------------------------------|
B|-4*-4*-4-4*-4*-4-4*-4*-4-4*-4*-4-4*-4*-4-4*-4*-4-4*-4*-5---------|
G|---------------------------------------------------------4*-4*-4-|
D|-----------------------------------------------------------------|
A|-----------------------------------------------------------------|
E|-----------------------------------------------------------------|

I'll think about the times
She kissed me after class
And she put up with my friends
I acted like an ass I'd 

B               E             F#
Ditch my lecture to watch the girls play soccer
B             E             F#
Is my picture still hanging in her locker


Refrão: (Tocado em Power Chord)

D#        E                B    F#
I haven't been this scared in a long time
D#         E          B              F#
And I'm so unprepared so here's your valentine
D#         E            B         F#
Bouquet of clumsy words, a simple melody
D#              E
This world's an ugly place
B             F#
But you're so beautiful

________________________________________________________
                                                        | 
e|-2-2-2-2-2--2-2-2-2-2-2--2-2-2-2-2-2--2-2-2-2-2--|    |
B|-4-4-4-4-4--2-2-2-2-2-2--4-4-4-4-4-4--2-2-2-2-2--|    |
G|-4-4-4-4-4--4-4-4-4-4-4--4-4-4-4-4-4--4-4-4-4-4--|    |
D|-4-4-4-4-4--4-4-4-4-4-4--4-4-4-4-4-4--4-4-4-4-4--|    |
A|-------------------------------------------------|    |
E|-------------------------------------------------|    |
                                                        | 2x
e|-2-2-2-2-2--2-2-2-2-2-2--2-2-2-2-2-2--2-2-2-2-2--|    |
B|-4-4-4-4-4--2-2-2-2-2-2--4-4-4-4-4-4--2-2-2-2-2--|    |
G|-4-4-4-4-4--4-4-4-4-4-4--4-4-4-4-4-4--4-4-4-4-4--|    |
D|-2-2-2-2-2--2-2-2-2-2-2--2-2-2-2-2-2--2-2-2-2-2--|    |
A|-------------------------------------------------|    |
E|-------------------------------------------------|    |
________________________________________________________|

D#        E                B    F#
I haven't been this scared in a long time
D#         E          B              F#
And I'm so unprepared so here's your valentine
D#         E            B         F#
Bouquet of clumsy words, a simple melody
D#              E
This world's an ugly place
B             F#
But you're so beautiful

Clipes