Good Times

Blink-182

Tom: G
Intro
Distortion
#1t1##1t2#e|---------------------------------------------------------------------------|
B|---------------------------------------------------------------------------|
G|-3-------------------------------------------------------------------------|
D|-3-------------------------------------------------------------------------|
A|-1-------------------------------------------------------------------------|
E|---------------------------------------------------------------------------|#/1t2##/1t1#
   Good Times

#2t1##2t2#e|---------------------------------------------------------------------------|
B|---------------------------------------------------------------------------|
G|-5-------------------------------------------------------------------------|
D|-5-------------------------------------------------------------------------|
A|-3-------------------------------------------------------------------------|
E|---------------------------------------------------------------------------|#/2t2##/2t1#
   Good Times

#3t1##3t2#e|---------------------------------------------------------------------------|
B|---------------------------------------------------------------------------|
G|---------------------------------------------------------------------------|
D|-3-------------------------------------------------------------------------|
A|-3-------------------------------------------------------------------------|
E|-1-------------------------------------------------------------------------|#/3t2##/3t1#
   Good Times

#4t1##4t2#e|---------------------------------------------------------------------------|
B|---------------------------------------------------------------------------|
G|-3-3-----------------------------------------------------------------------|
D|-3-3-----------------------------------------------------------------------|
A|-1-1-----------------------------------------------------------------------|
E|---------------------------------------------------------------------------|#/4t2##/4t1#
   oh baby, good times

Guitar Part
Distortion
#5t1##5t2#e|--------------------------------------------------------------------------------------|
|---------------------------------------------------------------------------------------|
G|--3-3-3-3-3-3-3-3-3-3--5-5-5-5-5-5-5-5-5-5-----------------------3-3-3-X-X-3-3-3-X-X--|
D|--3-3-3-3-3-3-3-3-3-3--5-5-5-5-5-5-5-5-5-5--3-3-3-3-3-3-3-3-3-3--3-3-3-X-X-3-3-3-X-X--|
A|--1-1-1-1-1-1-1-1-1-1--3-3-3-3-3-3-3-3-3-3--3-3-3-3-3-3-3-3-3-3--1-1-1-X-X-1-1-1-X-X--|
E|--------------------------------------------1-1-1-1-1-1-1-1-1-1-----------------------|#/5t2##/5t1#

#6t1##6t2#e|---------------------------------4----------------------------------|
B|------------------------------------4-------------------------------|
G|--8--8-8-8--8--8-8-8--5--5-5-5--------------------------------------|
D|--8--8-8-8--8--8-8-8--5--5-5-5--------------------------------------|
A|--6--6-6-6--5--5-5-5--3--3-3-3--------------------------------------|
E|--------------------------------------------------------------------|#/6t2##/6t1#

#7t1##7t2#e|--------------------------------------------------------------------------|
B|--------------------------------------------------------------------------|
G|--8-8--5-5-5--8-8--5-5-5--8-8--5-5-5--8-8--5-5-5--------------------------|
D|--8-8--5-5-5--8-8--5-5-5--8-8--5-5-5--8-8--5-5-5--------------------------|
A|--6-6--3-3-3--6-6--3-3-3--6-6--3-3-3--6-6--3-3-3--------------------------|
E|--------------------------------------------------------------------------|#/7t2##/7t1#

#8t1##8t2#e|---------------------------------------------------------------------------|
B|---------------------------------------------------------------------------|
G|--8-8--5-5-5-5-5-------------8---------------------------------------------|
D|--8-8--5-5-5-5-5--6-6-6-6-6--8---------------------------------------------|
A|--6-6--3-3-3-3-3--6-6-6-6-6--6---------------------------------------------|
E|------------------4-4-4-4-4------------------------------------------------|                                  Scrap pick down string#/8t2##/8t1#

Verse
Distortion
#9t1##9t2#e|---------------------------------------------------------------------------|
B|---------------------------------------------------------------------------|
G|-3-3-3-3-3-3-3-3-3-3-3-3-3-3-3-3-3-3-3-------------------------------------|
D|-3-3-3-3-3-3-3-3-3-3-3-3-3-3-3-3-3-3-3-------------------------------------|
A|-1-1-1-1-1-1-1-1-1-1-1-1-1-1-1-1-1-1-1-------------------------------------|
E|---------------------------------------------------------------------------|#/9t2##/9t1#
   Good Times
              any time you meet a payment
#10t1##10t2#e|---------------------------------------------------------------------------|
B|---------------------------------------------------------------------------|
G|-5-5-5-5-5-5-5-5-5-5-5-5-5-5-5-5-5-----------------------------------------|
D|-5-5-5-5-5-5-5-5-5-5-5-5-5-5-5-5-5-----------------------------------------|
A|-3-3-3-3-3-3-3-3-3-3-3-3-3-3-3-3-3-----------------------------------------|
E|---------------------------------------------------------------------------|#/10t2##/10t1#
   Good Times
              any time you feel free

#11t1##11t2#e|---------------------------------------------------------------------------|
B|---------------------------------------------------------------------------|
G|---------------------------------------------------------------------------|
D|-3-3-3-3-3-3-3-3-3-3-3-3-3-3-3-3-3-3-3-3-3---------------------------------|
A|-3-3-3-3-3-3-3-3-3-3-3-3-3-3-3-3-3-3-3-3-3---------------------------------|
E|-1-1-1-1-1-1-1-1-1-1-1-1-1-1-1-1-1-1-1-1-1---------------------------------|#/11t2##/11t1#
   Good Times
              any time you're out from under
#12t1##12t2#e|---------------------------------------------------------------------------|
B|---------------------------------------------------------------------------|
G|-3-3-X-X-X-X-3-3-3-3-3-3-X-X-X-X-3-3-3-3-----------------------------------|
D|-3-3-X-X-X-X-3-3-3-3-3-3-X-X-X-X-3-3-3-3-----------------------------------|
A|-1-1-X-X-X-X-1-1-1-1-1-1-X-X-X-X-1-1-1-1-----------------------------------|
E|---------------------------------------------------------------------------|#/12t2##/12t1#
   Not getting hassled, not getting hustled

#13t1##13t2#e|--------------------------------------------------------------------------|
B|--------------------------------------------------------------------------|
G|--8--8-8-8-8-8-8-8-8--8--8-8-8--------------------------------------------|
D|--8--8-8-8-8-8-8-8-8--8--8-8-8--------------------------------------------|
A|--6--6-6-6-6-6-6-6-6--5--5-5-5--------------------------------------------|
E|--------------------------------------------------------------------------|#/13t2##/13t1#
   keeping' your head above water,

#14t1##14t2#e|------------------------4---------------------------------------------------|
B|--------------------------4-------------------------------------------------|
G|-5-5--5-5-5-5-5-5-5-5-------------------------------------------------------|
D|-5-5--5-5-5-5-5-5-5-5-------------------------------------------------------|
A|-3-3--3-3-3-3-3-3-3-3-------------------------------------------------------|
E|----------------------------------------------------------------------------|#/14t2##/14t1#
   making a wave when you can

#15t1##15t2#e|---------------------------------------------------------------------------|
B|---------------------------------------------------------------------------|
G|-8--8--8-8-8-8--5-5-5-5-5-5------------------------------------------------|
D|-8--8--8-8-8-8--5-5-5-5-5-5------------------------------------------------|
A|-6--6--6-6-6-6--3-3-3-3-3-3------------------------------------------------|
E|---------------------------------------------------------------------------|#/15t2##/15t1#
#16t1#   Tempory layoffs. (Good Times)
#16t2#e|---------------------------------------------------------------------------|
B|---------------------------------------------------------------------------|
G|-8--8--8-8-8-8-8-8--5-5-5-5-5-5-5-5-5--------------------------------------|
D|-8--8--8-8-8-8-8-8--5-5-5-5-5-5-5-5-5--------------------------------------|
A|-6--6--6-6-6-6-6-6--3-3-3-3-3-3-3-3-3--------------------------------------|
E|---------------------------------------------------------------------------|#/16t2##/16t1#
#17t1#   Easy credit rip offs. (Nipples Little)
#17t2#e|---------------------------------------------------------------------------|
B|---------------------------------------------------------------------------|
G|-8--8--8-8-8-8-8-8-8-8-8--5-5-5-5-5-5--------------------------------------|
D|-8--8--8-8-8-8-8-8-8-8-8--5-5-5-5-5-5--------------------------------------|
A|-6--6--6-6-6-6-6-6-6-6-6--3-3-3-3-3-3--------------------------------------|
E|---------------------------------------------------------------------------|#/17t2##/17t1#
#18t1#   Scratchin' and surviving. (Good Time)
#18t2#e|---------------------------------------------------------------------------|
B|---------------------------------------------------------------------------|
G|-8--8--8-8-8-8-8-8-8-8--5-5-5-5-5-5----------------------------------------|
D|-8--8--8-8-8-8-8-8-8-8--5-5-5-5-5-5----------------------------------------|
A|-6--6--6-6-6-6-6-6-6-6--3-3-3-3-3-3----------------------------------------|
E|---------------------------------------------------------------------------|#/18t2##/18t1#
#19t1#   Hangin in a chow line. (Good Times)
#19t2#e|---------------------------------------------------------------------------|
B|---------------------------------------------------------------------------|
G|-8--8--8-8-8-8-8-8--5-5-5-5-5-----------8-8-8-8-8--8-----------------------|
D|-8--8--8-8-8-8-8-8--5-5-5-5-5--6-6-6-6--8-8-8-8-8--8-----------------------|
A|-6--6--6-6-6-6-6-6--3-3-3-3-3--6-6-6-6--6-6-6-6-6--6-----------------------|
E|-------------------------------4-4-4-4-------------------------------------|#/19t2##/19t1#
   Ain't we lucky we  got 'em___________  (Good Times)

===============================================================================
Composição: Colaboração e revisão: