Grandpa Song

Blink-182

Tom: G
#1t1#[Verse]
#1t2#-2------0------2------0--------------0------------------------
-3---3-----3---3----3---3---3-----3------2-----2--3-----------
----------------------------0--0---------2---2----------------
-0-------------0----------------------------------------------
-----------------------------------------0--------------------
----------------------------3---------------------------------#/1t2##/1t1#
#2t1#[Chorus]
#2t2#--------------------------------------------------------
--3-----3----3-----3-------3-----3----3----3------------
--0--0----0----0-----0-----2--2----2----2----2----------
--------------------------------------------------------Play 3x
---------------------------0----------------------------End with:
--3-----------------------------------------------------#/2t2##/2t1#
#3t1#[Chorus end]
#3t2#---------------------------------
--2-----2----2----2-------2------
--2--2----2----2----2-----2------
---------------------------------
--0-----------------------0------
---------------------------------#/3t2##/3t1#

[comments]
*Play the verse starting in the shape of an open D chord.  Go from there.
*Don't use a pick, just finger-pick, use index and middle for the jumping notes.
*Then when it is time play the chorus, play it 3x and then play the chorus End 1ce.
Composição: Artie Kornfeld / Barker / Brian Wilson / Feldman / Feldmann / Hodges / Hoppus / Iil Aaron / J. P. Clark / Jan Berry / John Feldmann / John Lennon / Johnson / JP Clark / JRM / Mark Hoppus / Matt Malpass / Matt Skiba / Matt Skibba / Mott The Hopple / NOFX / Ono Yoko / Roger Christian / Sam Hollander / Skiba / Smrdeath / Stump / T. Hales / Thabiso Nkhereanye / The Cure / Tim Pagnotta / Tom / Tom DeLonge / Travis BarkerColaboração e revisão: