Here’s Your Letter

Blink-182

Tom: G
Bom para começar ela está 100% então não venham querer colocá-la com acorde.


#1t1#Intro:
#1t2#E|------------------------------------------------------------------------------|
B|------------------------------------------------------------------------------|
G|------------------------7-7-7-7-7-7-------------------------------------------|
D|---4-4-4-4-4-4-4-4------x-x-x-x-x-x------7---9---11--11-11-/-12-/-9-9-9-9-9-9-|
A|---x-x-x-x-x-x-x-x------5-5-5-5-5-5------x-/-x-/-x-x-x-x-x-/--x-/-x-x-x-x-x-x-|
E|---2-2-2-2-2-2-2-2-----------------------5-/-7-/-9-9-9-9-9-/-10-/-7-7-7-7-7-7-|#/1t2##/1t1#

#2t1##2t2#E|------------------------------------------------------------------------------|
B|------------------------------------------------------------------------------|
G|------------------------7-7-7-7-7-7-7-7---------------------------------------|
D|---4-4-4-4-4-4-4-4------x-x-x-x-x-x-x-x-------7-7-7-7-7-7-7-7-7-7-7-7-7-7-7-7-|
A|---x-x-x-x-x-x-x-x------5-5-5-5-5-5-5-5-------x-x-x-x-x-x-x-x-x-x-x-x-x-x-x-x-|
E|---2-2-2-2-2-2-2-2----------------------------5-5-5-5-5-5-5-5-5-5-5-5-5-5-5-5-|#/2t2##/2t1#

Verso:
Primeira vez fica só o BAIXO
#3t1##3t2#G|------------------------------------------------------------------|
D|------------------------------------------------------------------|
A|--------------------5-5-5-5-5-5-----------------------------------|
E|---2-2-2-2-2-2-----------------------5-5-5-5-5-5-----7-7-7-7-7-7--|#/3t2##/3t1#

#4t1##4t2#G|------------------------------------------------------------------|
D|------------------------------------------------------------------|
A|--------------------5-5-5-5-5-5-----------------------------------|
E|---2-2-2-2-2-2-----------------------5-5-5-5-5-5-5-5-5-5-5-5-5-5-5|#/4t2##/4t1#

Comeca a Segunda VEZ entra a GUITARRA ABAFADA

#5t1##5t2#E|------------------------------------------------------------------|
B|------------------------------------------------------------------|
G|--------------------7-7-7-7-7-7-----------------------------------|
D|---4-4-4-4-4-4------7-7-7-7-7-7------7-7-7-7-7-7------9-9-9-9-9-9-|
A|---4-4-4-4-4-4------5-5-5-5-5-5------7-7-7-7-7-7------9-9-9-9-9-9-|
E|---2-2-2-2-2-2-----------------------5-5-5-5-5-5------7-7-7-7-7-7-|#/5t2##/5t1#

#6t1##6t2#E|------------------------------------------------------------------|
B|------------------------------------------------------------------|
G|--------------------7-7-7-7-7-7-----------------------------------|
D|---4-4-4-4-4-4------7-7-7-7-7-7-------7-7-7-7-7-7-7-7-7-7-7-7-7-7-|
A|---4-4-4-4-4-4------5-5-5-5-5-5-------7-7-7-7-7-7-7-7-7-7-7-7-7-7-|
E|---2-2-2-2-2-2------------------------5-5-5-5-5-5-5-5-5-5-5-5-5-5-|#/6t2##/6t1#



#7t1#Refrão:     (2x)
#7t2#E|--------------------------------------------------|
B|--------------------------------------------------|
G|------------------------------7-7-7-7-7-7-7-7-7-7-|
D|--7-7-7-6-6-6-2-2-2-4-4-4-4-4-7-7-7-7-7-7-7-7-7-7-|
A|--7-7-7-6-6-6-2-2-2-4-4-4-4-4-5-5-5-5-5-5-5-5-5-5-|
E|--5-5-5-4-4-4-0-0-0-2-2-2-2-2---------------------|#/7t2##/7t1#

DEPOIS DO REFRÃO VAI ENTRA DIRETO PARA A INTRO
Intro:
#8t1##8t2#E|------------------------------------------------------------------------------|
B|------------------------------------------------------------------------------|
G|------------------------7-7-7-7-7-7-------------------------------------------|
D|---4-4-4-4-4-4-4-4------x-x-x-x-x-x------7---9---11--11-11-/-12-/-9-9-9-9-9-9-|
A|---x-x-x-x-x-x-x-x------5-5-5-5-5-5------x-/-x-/-x-x-x-x-x-/--x-/-x-x-x-x-x-x-|
E|---2-2-2-2-2-2-2-2-----------------------5-/-7-/-9-9-9-9-9-/-10-/-7-7-7-7-7-7-|#/8t2##/8t1#

#9t1##9t2#E|-------------------------------------------------------------------------------
B|-------------------------------------------------------------------------------
G|------------------------7-7-7-7-7-7-7-7-------7-7-7-7-7-7-7-7-7-7-7-7-7-7-7-7--
D|---4-4-4-4-4-4-4-4------7-7-7-7-7-7-7-7-------7-7-7-7-7-7-7-7-7-7-7-7-7-7-7-7--
A|---4-4-4-4-4-4-4-4------5-5-5-5-5-5-5-5-------x-x-x-x-x-x-x-x-x-x-x-x-x-x-x-x--
E|---2-2-2-2-2-2-2-2----------------------------5-5-5-5-5-5-5-5-5-5-5-5-5-5-5-5--#/9t2##/9t1#


Verso:
Primeira vez fica só o BAIXO
#10t1##10t2#G|------------------------------------------------------------------|
D|------------------------------------------------------------------|
A|--------------------5-5-5-5-5-5-----------------------------------|
E|---2-2-2-2-2-2-----------------------5-5-5-5-5-5-----7-7-7-7-7-7--|#/10t2##/10t1#

#11t1##11t2#G|------------------------------------------------------------------|
D|------------------------------------------------------------------|
A|--------------------5-5-5-5-5-5-----------------------------------|
E|---2-2-2-2-2-2-----------------------5-5-5-5-5-5-5-5-5-5-5-5-5-5-5|#/11t2##/11t1#

Comeca a Segunda VEZ entra a GUITARRA ABAFADA

#12t1##12t2#E|------------------------------------------------------------------|
B|------------------------------------------------------------------|
G|--------------------7-7-7-7-7-7-----------------------------------|
D|---4-4-4-4-4-4------7-7-7-7-7-7------7-7-7-7-7-7------9-9-9-9-9-9-|
A|---4-4-4-4-4-4------5-5-5-5-5-5------7-7-7-7-7-7------9-9-9-9-9-9-|
E|---2-2-2-2-2-2-----------------------5-5-5-5-5-5------7-7-7-7-7-7-|#/12t2##/12t1#

#13t1##13t2#E|------------------------------------------------------------------|
B|------------------------------------------------------------------|
G|--------------------7-7-7-7-7-7-----------------------------------|
D|---4-4-4-4-4-4------7-7-7-7-7-7-------7-7-7-7-7-7-7-7-7-7-7-7-7-7-|
A|---4-4-4-4-4-4------5-5-5-5-5-5-------7-7-7-7-7-7-7-7-7-7-7-7-7-7-|
E|---2-2-2-2-2-2------------------------5-5-5-5-5-5-5-5-5-5-5-5-5-5-|#/13t2##/13t1#



#14t1#Refrão:     (4x)
#14t2#E|--------------------------------------------------|
B|--------------------------------------------------|
G|------------------------------7-7-7-7-7-7-7-7-7-7-|
D|--7-7-7-6-6-6-2-2-2-4-4-4-4-4-7-7-7-7-7-7-7-7-7-7-|
A|--7-7-7-6-6-6-2-2-2-4-4-4-4-4-5-5-5-5-5-5-5-5-5-5-|
E|--5-5-5-4-4-4-0-0-0-2-2-2-2-2---------------------|#/14t2##/14t1#

Interlúdio:
       (2x)
#15t1##15t2#E|-------------------------------------------------------------|
B|-------------------------------------------------------------|
G|---------------------------------7-7-7-7-7-7-7-7-7-7-7-7-7-7-|
D|---7-7-7-7-7-7-7-7-7-7-7-7-7-7---7-7-7-7-7-7-7-7-7-7-7-7-7-7-|
A|---7-7-7-7-7-7-7-7-7-7-7-7-7-7---5-5-5-5-5-5-5-5-5-5-5-5-5-5-|
E|---5-5-5-5-5-5-5-5-5-5-5-5-5-5-------------------------------|#/15t2##/15t1#


#16t1##16t2#E|---------------------------------------------|
B|---------------------------------------------|
G|--------------------------------(7)----------|     (2 vezes)
D|----(4)---------(6)-------------(7)----------|
A|----(4)---------(6)-------------(5)----------|
E|----(2)---------(4)--------------------------|#/16t2##/16t1#
      15x         15x            vááárias vezes

Refrão:    (4x)

Intro




Ordem DA MÚSICA:
Intro      1x
Verso      1x Só Baixo
Verso      1x Entra Guitarra abafada
Refrão     2x
Intro      1x
Verso      1x Só Baixo
Verso      1x Entra Guitarra Abafada
Refrão     4x
Interludio 2x
Refrão     4x
Intro      1x
Composição: Artie Kornfeld / Barker / Brian Wilson / Feldman / Feldmann / Hodges / Hoppus / Iil Aaron / J. P. Clark / Jan Berry / John Feldmann / John Lennon / Johnson / JP Clark / JRM / Mark Hoppus / Matt Malpass / Matt Skiba / Matt Skibba / Mott The Hopple / NOFX / Ono Yoko / Roger Christian / Sam Hollander / Skiba / Smrdeath / Stump / T. Hales / Thabiso Nkhereanye / The Cure / Tim Pagnotta / Tom / Tom DeLonge / Travis BarkerColaboração e revisão: XX XXMatheus FIscher