busca

Here’s Your Letter

blink-182

Tom: A
Bom para começar ela está 100% então não venham querer colocá-la com acorde.


Intro:
E|------------------------------------------------------------------------------|
B|------------------------------------------------------------------------------|
G|------------------------7-7-7-7-7-7-------------------------------------------|
D|---4-4-4-4-4-4-4-4------x-x-x-x-x-x------7---9---11--11-11-/-12-/-9-9-9-9-9-9-|
A|---x-x-x-x-x-x-x-x------5-5-5-5-5-5------x-/-x-/-x-x-x-x-x-/--x-/-x-x-x-x-x-x-|
E|---2-2-2-2-2-2-2-2-----------------------5-/-7-/-9-9-9-9-9-/-10-/-7-7-7-7-7-7-|

E|------------------------------------------------------------------------------|
B|------------------------------------------------------------------------------|
G|------------------------7-7-7-7-7-7-7-7---------------------------------------|
D|---4-4-4-4-4-4-4-4------x-x-x-x-x-x-x-x-------7-7-7-7-7-7-7-7-7-7-7-7-7-7-7-7-|
A|---x-x-x-x-x-x-x-x------5-5-5-5-5-5-5-5-------x-x-x-x-x-x-x-x-x-x-x-x-x-x-x-x-|
E|---2-2-2-2-2-2-2-2----------------------------5-5-5-5-5-5-5-5-5-5-5-5-5-5-5-5-|

Verso:
Primeira vez fica só o BAIXO
G|------------------------------------------------------------------|
D|------------------------------------------------------------------|
A|--------------------5-5-5-5-5-5-----------------------------------|
E|---2-2-2-2-2-2-----------------------5-5-5-5-5-5-----7-7-7-7-7-7--|

G|------------------------------------------------------------------|
D|------------------------------------------------------------------|
A|--------------------5-5-5-5-5-5-----------------------------------|
E|---2-2-2-2-2-2-----------------------5-5-5-5-5-5-5-5-5-5-5-5-5-5-5|

Comeca a Segunda VEZ entra a GUITARRA ABAFADA

E|------------------------------------------------------------------|
B|------------------------------------------------------------------|
G|--------------------7-7-7-7-7-7-----------------------------------|
D|---4-4-4-4-4-4------7-7-7-7-7-7------7-7-7-7-7-7------9-9-9-9-9-9-|
A|---4-4-4-4-4-4------5-5-5-5-5-5------7-7-7-7-7-7------9-9-9-9-9-9-|
E|---2-2-2-2-2-2-----------------------5-5-5-5-5-5------7-7-7-7-7-7-|

E|------------------------------------------------------------------|
B|------------------------------------------------------------------|
G|--------------------7-7-7-7-7-7-----------------------------------|
D|---4-4-4-4-4-4------7-7-7-7-7-7-------7-7-7-7-7-7-7-7-7-7-7-7-7-7-|
A|---4-4-4-4-4-4------5-5-5-5-5-5-------7-7-7-7-7-7-7-7-7-7-7-7-7-7-|
E|---2-2-2-2-2-2------------------------5-5-5-5-5-5-5-5-5-5-5-5-5-5-|



Refrão:     (2x)
E|--------------------------------------------------|
B|--------------------------------------------------|
G|------------------------------7-7-7-7-7-7-7-7-7-7-|
D|--7-7-7-6-6-6-2-2-2-4-4-4-4-4-7-7-7-7-7-7-7-7-7-7-|
A|--7-7-7-6-6-6-2-2-2-4-4-4-4-4-5-5-5-5-5-5-5-5-5-5-|
E|--5-5-5-4-4-4-0-0-0-2-2-2-2-2---------------------|

DEPOIS DO REFRÃO VAI ENTRA DIRETO PARA A INTRO
Intro:
E|------------------------------------------------------------------------------|
B|------------------------------------------------------------------------------|
G|------------------------7-7-7-7-7-7-------------------------------------------|
D|---4-4-4-4-4-4-4-4------x-x-x-x-x-x------7---9---11--11-11-/-12-/-9-9-9-9-9-9-|
A|---x-x-x-x-x-x-x-x------5-5-5-5-5-5------x-/-x-/-x-x-x-x-x-/--x-/-x-x-x-x-x-x-|
E|---2-2-2-2-2-2-2-2-----------------------5-/-7-/-9-9-9-9-9-/-10-/-7-7-7-7-7-7-|

E|-------------------------------------------------------------------------------
B|-------------------------------------------------------------------------------
G|------------------------7-7-7-7-7-7-7-7-------7-7-7-7-7-7-7-7-7-7-7-7-7-7-7-7--
D|---4-4-4-4-4-4-4-4------7-7-7-7-7-7-7-7-------7-7-7-7-7-7-7-7-7-7-7-7-7-7-7-7--
A|---4-4-4-4-4-4-4-4------5-5-5-5-5-5-5-5-------x-x-x-x-x-x-x-x-x-x-x-x-x-x-x-x--
E|---2-2-2-2-2-2-2-2----------------------------5-5-5-5-5-5-5-5-5-5-5-5-5-5-5-5--


Verso:
Primeira vez fica só o BAIXO
G|------------------------------------------------------------------|
D|------------------------------------------------------------------|
A|--------------------5-5-5-5-5-5-----------------------------------|
E|---2-2-2-2-2-2-----------------------5-5-5-5-5-5-----7-7-7-7-7-7--|

G|------------------------------------------------------------------|
D|------------------------------------------------------------------|
A|--------------------5-5-5-5-5-5-----------------------------------|
E|---2-2-2-2-2-2-----------------------5-5-5-5-5-5-5-5-5-5-5-5-5-5-5|

Comeca a Segunda VEZ entra a GUITARRA ABAFADA

E|------------------------------------------------------------------|
B|------------------------------------------------------------------|
G|--------------------7-7-7-7-7-7-----------------------------------|
D|---4-4-4-4-4-4------7-7-7-7-7-7------7-7-7-7-7-7------9-9-9-9-9-9-|
A|---4-4-4-4-4-4------5-5-5-5-5-5------7-7-7-7-7-7------9-9-9-9-9-9-|
E|---2-2-2-2-2-2-----------------------5-5-5-5-5-5------7-7-7-7-7-7-|

E|------------------------------------------------------------------|
B|------------------------------------------------------------------|
G|--------------------7-7-7-7-7-7-----------------------------------|
D|---4-4-4-4-4-4------7-7-7-7-7-7-------7-7-7-7-7-7-7-7-7-7-7-7-7-7-|
A|---4-4-4-4-4-4------5-5-5-5-5-5-------7-7-7-7-7-7-7-7-7-7-7-7-7-7-|
E|---2-2-2-2-2-2------------------------5-5-5-5-5-5-5-5-5-5-5-5-5-5-|



Refrão:     (4x)
E|--------------------------------------------------|
B|--------------------------------------------------|
G|------------------------------7-7-7-7-7-7-7-7-7-7-|
D|--7-7-7-6-6-6-2-2-2-4-4-4-4-4-7-7-7-7-7-7-7-7-7-7-|
A|--7-7-7-6-6-6-2-2-2-4-4-4-4-4-5-5-5-5-5-5-5-5-5-5-|
E|--5-5-5-4-4-4-0-0-0-2-2-2-2-2---------------------|

Interlúdio:
       (2x)
E|-------------------------------------------------------------|
B|-------------------------------------------------------------|
G|---------------------------------7-7-7-7-7-7-7-7-7-7-7-7-7-7-|
D|---7-7-7-7-7-7-7-7-7-7-7-7-7-7---7-7-7-7-7-7-7-7-7-7-7-7-7-7-|
A|---7-7-7-7-7-7-7-7-7-7-7-7-7-7---5-5-5-5-5-5-5-5-5-5-5-5-5-5-|
E|---5-5-5-5-5-5-5-5-5-5-5-5-5-5-------------------------------|


E|---------------------------------------------|
B|---------------------------------------------|
G|--------------------------------(7)----------|     (2 vezes)
D|----(4)---------(6)-------------(7)----------|
A|----(4)---------(6)-------------(5)----------|
E|----(2)---------(4)--------------------------|
      15x         15x            vááárias vezes

Refrão:    (4x)

Intro




Ordem DA MÚSICA:
Intro      1x
Verso      1x Só Baixo
Verso      1x Entra Guitarra abafada
Refrão     2x
Intro      1x
Verso      1x Só Baixo
Verso      1x Entra Guitarra Abafada
Refrão     4x
Interludio 2x
Refrão     4x
Intro      1x

Clipes