Home Is Such A Lonely Place

Blink-182

Tom: G
[Introdução e Verso:]

#1t1##1t2#E|------------------------------------------|
B|------------------------------------------|
G|------------------------------------------|
D|---7--7------7--9-------7---------2-------|
A|-5------5/-7------7--------9---------5----|
E|----------------------7------7-\3-------3-|#/1t2##/1t1#

We're falling faster than we can fly
Forgotten seconds out on Sunset Drive
And I hold on tight but not enough to hold you back


[Pré Refrão]

#2t1##2t2#E|-----------------------------------------|
B|-----------------------------------------|
G|------------------------------2----------|
D|----------7------------2--2-----2---2----| (2X)
A|---7--7-----7---7-9----------------------|
E|-7------7-----7-----\3------3-----3------|#/2t2##/2t1#

It feels like the moon
Is spinning off into outer space without you
This room is such a lonely place without you


#3t1##3t2#E|------------------------------------------|
B|------------------------------------------|
G|------------------------------------------|
D|---7--7------7--9-------7---------2-------|
A|-5------5/-7------7--------9---------5----|
E|----------------------7------7-\3-------3-|#/3t2##/3t1#

[Refrão:]

#4t1##4t2#E|------------------------------------------------|
B|------------------------------------------------|
G|------------------------------------------------|
D|---7--7------7--7-----7--7-----7--7-------------|
A|-5------5--5------5-----------------------------|
E|--------------------5------5-5------5-----------|
                                                        (2X)#/4t2##/4t1#
#5t1##5t2#E|------------------------------------------------|
B|------------------------------------------------|
G|-----------------------2--2-----2--2------------|
D|----7--7-----7--7-------------------------------|
A|------------------------------------------------|
E|--7------7-7------7-\3------3-3------3----------|#/5t2##/5t1#

I wish that we could save today
But I know we can't stay the same
And I keep pushing you away
Don't wait for me
Don't wait for me

#6t1##6t2#E|-----------------------------------------|
B|-----------------------------------------|
G|---------------------2--2-----2--2-------|
D|---7--7-----7--7-------------------------| (2X)
A|-----------------------------------------|
E|-7------7-7------7-3------3-3------3-----|#/6t2##/6t1#

Home is such a lonely place without you
Home is such a lonely place


[Introdução e Verso 2:]

#7t1##7t2#E|------------------------------------------|
B|------------------------------------------|
G|------------------------------------------|
D|---7--7------7--9-------7---------2-------|
A|-5------5/-7------7--------9---------5----|
E|----------------------7------7-\3-------3-|#/7t2##/7t1#

I love the lightning but hate the rain
Tomorrows frightening but not today
Wish I could slow down time but not enough to slow you down


[Pré Refrão]

#8t1##8t2#E|-----------------------------------------|
B|-----------------------------------------|
G|------------------------------2----------|
D|----------7------------2--2-----2---2----| (2X)
A|---7--7-----7---7-9----------------------|
E|-7------7-----7-----\3------3-----3------|#/8t2##/8t1#

It feels like the moon
Is spinning off into outer space without you
The universe an empty place without you

[Refrão:]

#9t1##9t2#E|------------------------------------------------|
B|------------------------------------------------|
G|------------------------------------------------|
D|---7--7------7--7-----7--7-----7--7-------------|
A|-5------5--5------5-----------------------------|
E|--------------------5------5-5------5-----------|
                                                       (2X)#/9t2##/9t1#
#10t1##10t2#E|------------------------------------------------|
B|------------------------------------------------|
G|-----------------------2--2-----2--2------------|
D|----7--7-----7--7-------------------------------|
A|------------------------------------------------|
E|--7------7-7------7-\3------3-3------3----------|#/10t2##/10t1#

I wish that we could save today
But I know we can't stay the same
And I keep pushing you away
Don't wait for me
Don't wait for me

#11t1##11t2#E|-----------------------------------------|
B|-----------------------------------------|
G|---------------------2--2-----2--2-------|
D|---7--7-----7--7-------------------------| (2X)
A|-----------------------------------------|
E|-7------7-7------7-3------3-3------3-----|#/11t2##/11t1#

Home is such a lonely place without you
Home is such a lonely place

#12t1##12t2#E|------------------------------------------|
B|------------------------------------------|
G|------------------------------------------|
D|---7--7------7--9-------7---------2-------| (2X)
A|-5------5/-7------7--------9---------5----|
E|----------------------7------7-\3-------3-|#/12t2##/12t1#

[Verso 3]

#13t1##13t2#E|------------------------------------------|
B|------------------------------------------|
G|------------------------------------------|
D|---7--7------7--9-------7---------2-------| (2X)
A|-5------5/-7------7--------9---------5----|
E|----------------------7------7-\3-------3-|#/13t2##/13t1#

#14t1##14t2#E|-------------------------------------------------------------|
B|-------------------------------------------------------------|
G|-------------------------------------------------------------|
D|---7--7------7--9-------7---------2---------2---------2------|
A|-5------5/-7------7--------9---------5---------5---------5---|
E|----------------------7------7-\3-------3-3-------3-3------3-|#/14t2##/14t1#

We're falling faster than we can fly
Forgotten seconds out on Sunset Drive


#15t1##15t2#E|-------|
B|-------|
G|-------|
D|-7~~~~-| (Deixe Soar)
A|-5~~~~-|
E|-------|#/15t2##/15t1#

I wish that we could save today
But I know we can't stay the same
And I keep pushing you away
Don't wait for me
Don't wait for me

[Refrão:]

#16t1##16t2#E|------------------------------------------------|
B|------------------------------------------------|
G|------------------------------------------------|
D|---7--7------7--7-----7--7-----7--7-------------|
A|-5------5--5------5-----------------------------|
E|--------------------5------5-5------5-----------|
                                                        (2X)#/16t2##/16t1#
#17t1##17t2#E|------------------------------------------------|
B|------------------------------------------------|
G|-----------------------2--2-----2--2------------|
D|----7--7-----7--7-------------------------------|
A|------------------------------------------------|
E|--7------7-7------7-\3------3-3------3----------|#/17t2##/17t1#

I wish that we could save today
But I know we can't stay the same
And I keep pushing you away
Don't wait for me
Don't wait for me

#18t1##18t2#E|-----------------------------------------|
B|-----------------------------------------|
G|---------------------2--2-----2--2-------|
D|---7--7-----7--7-------------------------| (2X)
A|-----------------------------------------|
E|-7------7-7------7-3------3-3------3-----|#/18t2##/18t1#

Home is such a lonely place without you
Home is such a lonely place

[Final]

#19t1##19t2#E|----------|
B|----------|
G|----------|
D|---7--7---|  (8X)
A|-5------5-|
E|----------|#/19t2##/19t1#

#20t1##20t2#E|----------|
B|----------|
G|----------|
D|-7~~~~----|
A|-5~~~~----|
E|----------|#/20t2##/20t1#
Composição: Mark Hoppus / Travis Barker / Matt SkibaColaboração e revisão: Renan Luiz