busca

I Miss You Live

Blink-182

Tom: D#
Intro:
B p/ D# 3x na qrta vez B p/ D# p/ B repita tudo isso 2x

             B p/ D#           B p/ D#
Hello  there,  the  angel  from  my  nightmare 
                B p/ D#                          B p/ D# p/ B
The  shadow  in  the  background  of  the  morgue 
                          B p/ D#                B p/ D#
The  unsuspecting  victim  of  darkness  in  the  valley 
                         B p/ D#                   B p/ D# p/ B
We  can  live  like  Jack  and  Sally  if  we  want 
                                  B p/ D#      
Where  you  can  always  find  me 
                      B p/ D#
We'll  have  Halloween  on  Christmas 
                   B p/ D#                         
And  in  the  night  we'll  wish  this  never  ends 
                                
B p/ D# p/ B                              
We'll  wish  this  never  ends 

B ( dah um tok e segura 2x)

                B      Bb
Where  are  you  and  I'm  so  sorry
 G#                                        Bb
I  cannot  sleep  I  cannot  dream  tonight
                            B             
I  need  somebody  and  always
Bb                    
This  sick  strange  darkness 
G#                                         Bb
Comes  creeping  on  so  haunting  every  time 
                               B
And  as  I  stared  I  counted 
          Bb
Webs  from  all  the  spiders 
 G#                                        Bb 
Catching  things  and  eating  their  insides 
                          B
Like  indecision  to  call  you 

Bb
and  hear  your  voice  of  treason 
G#                                                Bb
Will  you  come  home  and  stop  this  pain  tonight 
                   
Stop  this  pain  tonight 

B                          Bb                     
Don't waste your time on me you're  already 
                                                       Repita o refrao 2x
D#                    G#          Bb   
The voice inside my head       (i miss you)

solo 2x
e------------------------------------------------------------------------------------
b------------------------------------------------------------------------------------
g-----------11---11---------------11-----------------11-----11-------------11--------
d----9--------------------9/8-----------------8/9-------------------9/11--------------------
a------------------------------------------------------------------------------------
e------------------------------------------------------------------------------------

B                          Bb                     
Don't waste your time on me you're  already 
                                                           Repita o refrao 4x
D#                    G#          Bb   
The voice inside my head       (i miss you)    

num dah nem pa percebe o solo q tom faz pq o mark faz um acompanhamento

solinhu
e------------------------------------------------------------------------------------               
b------------------------------------------------------------------------------------              
g-----------11---11----------------11---------------------------------------------              
d----9---------------------9/8--------------------------------------------

D# C# D# E B C#   

solinhu

D# C# D# E B C#     

D# C# D# E B C# D# B

Clipes