busca

I Miss You

blink-182

Tom: C
[Introdução]

(Guitarra 3x)
E|-----------------------------------------------------|
B|-----------------------------------------------------|
G|-4-4-4/8-----8-8-------------------------------------|
D|-----------------------------------------------------|
A|-2-2-2/6-----6-6-------------------------------------|
E|-----------------------------------------------------|

E|-----------------------------------------------------|
B|-----------------------------------------------------|
G|-4-4-4/8-----8-8-------------------------------------|
D|-----------------------------------------------------|
A|-2-2-2/6-----6-6-------------------------------------|
E|-----------------------------------------------------|

E|-----------------------------------------------------|
B|-----------------------------------------------------|
G|-4-4-4/8-----8-8-------------------------------------|
D|-----------------------------------------------------|
A|-2-2-2/6-----6-6-------------------------------------|
E|-----------------------------------------------------|

E|-----------------------------------------------------|
B|-----------------------------------------------------|
G|-4-4-4/8-----8-8\4-----------------------------------|
D|-----------------------------------------------------|
A|-2-2-2/6-----6-6\2-----------------------------------|
E|-----------------------------------------------------|


[Primeira Parte]

(Guitarra 3x)
E|-----------------------------------------------------|
B|-----------------------------------------------------|
G|-4-4-4/8-----8-8-------------------------------------|
D|-----------------------------------------------------|
A|-2-2-2/6-----6-6-------------------------------------|
E|-----------------------------------------------------|

E|-----------------------------------------------------|
B|-----------------------------------------------------|
G|-4-4-4/8-----8-8-------------------------------------|
D|-----------------------------------------------------|
A|-2-2-2/6-----6-6-------------------------------------|
E|-----------------------------------------------------|

E|-----------------------------------------------------|
B|-----------------------------------------------------|
G|-4-4-4/8-----8-8-------------------------------------|
D|-----------------------------------------------------|
A|-2-2-2/6-----6-6-------------------------------------|
E|-----------------------------------------------------|

E|-----------------------------------------------------|
B|-----------------------------------------------------|
G|-4-4-4/8-----8-8\4-----------------------------------|
D|-----------------------------------------------------|
A|-2-2-2/6-----6-6\2-----------------------------------|
E|-----------------------------------------------------|

Hello there
The angel from my nightmare
The shadow in 
The background of the morgue
The unsuspecting victim 
Of darkness in the valley
We can live like Jack and Sally 
If we want
Where you can always find me
And we'll have Halloween on Christmas
And in the night 
We'll wish this never ends
We'll wish this never ends


[Interlúdio]

(Guitarra 2x)
E|-----------------------------------------------------|
B|-----------------------------------------------------|
G|-4---4---4-4-4-6---6-6---6-6-6-6---------------------|
D|-----------------------------------------------------|
A|-2---2---2-2-2-4---4-4---4-4-4-4---------------------|
E|-----------------------------------------------------|
   ↓   ↓   ↓ ↑ ↓ ↑   ↑ ↓   ↓ ↑ ↓ ↑


E|-----------------------------------------------------|
B|-----------------------------------------------------|
G|-8---8---8-8-8-11---11-11---11-11-11-11--------------|
D|-----------------------------------------------------|
A|-6---6---6-6-6--9----9--9----9--9--9--9--------------|
E|-----------------------------------------------------|
   ↓   ↓   ↓ ↑ ↓  ↑    ↑  ↓    ↓  ↑  ↓  ↑

 
E|-----------------------------------------------------|
B|-----------------------------------------------------|
G|-----------------------------------------------------|
D|-6---6---6-6-6-8---8-8---8-8-8-8---------------------|
A|-----------------------------------------------------|
E|-4---4---4-4-4-6---6-6---6-6-6-6---------------------|
   ↓   ↓   ↓ ↑ ↓ ↑   ↑ ↓   ↓ ↑ ↓ ↑


E|-----------------------------------------------------|
B|-----------------------------------------------------|
G|-4---4---4-4-4-4---4-4---4-4-4-4---------------------|
D|-----------------------------------------------------|
A|-2---2---2-2-2-2---2-2---2-2-2-2---------------------|
E|-----------------------------------------------------|
   ↓   ↓   ↓ ↑ ↓ ↑   ↑ ↓   ↓ ↑ ↓ ↑


I miss you, miss you
I miss you, miss you


[Segunda Parte]

(Guitarra 4x)
E|-----------------------------------------------------|
B|-----------------------------------------------------|
G|-4-4-4/8-----8-8-------------------------------------|
D|-----------------------------------------------------|
A|-2-2-2/6-----6-6-------------------------------------|
E|-----------------------------------------------------|

E|-----------------------------------------------------|
B|-----------------------------------------------------|
G|-4-4-4/8-----8-8-------------------------------------|
D|-----------------------------------------------------|
A|-2-2-2/6-----6-6-------------------------------------|
E|-----------------------------------------------------|

E|-----------------------------------------------------|
B|-----------------------------------------------------|
G|-4-4-4/8-----8-8-------------------------------------|
D|-----------------------------------------------------|
A|-2-2-2/6-----6-6-------------------------------------|
E|-----------------------------------------------------|

E|-----------------------------------------------------|
B|-----------------------------------------------------|
G|-4-4-4/8-----8-8\4-----------------------------------|
D|-----------------------------------------------------|
A|-2-2-2/6-----6-6\2-----------------------------------|
E|-----------------------------------------------------|

Where are you 
And I'm so sorry
I cannot sleep 
I cannot dream tonight
I need somebody and always
This sick strange darkness
Comes creeping on 
So haunting every time
And as I stared I counted
The webs from all the spiders
Catching things 
And eating their insides
Like indecision to call you
And hear your voice of treason
Will you come home 
And stop this pain tonight
Stop this pain tonight


[Refrão]

(Guitarra 2x)
E|-----------------------------------------------------|
B|-----------------------------------------------------|
G|-4---4---4-4-4-6---6-6---6-6-6-6---------------------|
D|-----------------------------------------------------|
A|-2---2---2-2-2-4---4-4---4-4-4-4---------------------|
E|-----------------------------------------------------|
   ↓   ↓   ↓ ↑ ↓ ↑   ↑ ↓   ↓ ↑ ↓ ↑


E|-----------------------------------------------------|
B|-----------------------------------------------------|
G|-8---8---8-8-8-11---11-11---11-11-11-11--------------|
D|-----------------------------------------------------|
A|-6---6---6-6-6--9----9--9----9--9--9--9--------------|
E|-----------------------------------------------------|
   ↓   ↓   ↓ ↑ ↓  ↑    ↑  ↓    ↓  ↑  ↓  ↑

 
E|-----------------------------------------------------|
B|-----------------------------------------------------|
G|-----------------------------------------------------|
D|-6---6---6-6-6-8---8-8---8-8-8-8---------------------|
A|-----------------------------------------------------|
E|-4---4---4-4-4-6---6-6---6-6-6-6---------------------|
   ↓   ↓   ↓ ↑ ↓ ↑   ↑ ↓   ↓ ↑ ↓ ↑


E|-----------------------------------------------------|
B|-----------------------------------------------------|
G|-4---4---4-4-4-4---4-4---4-4-4-4---------------------|
D|-----------------------------------------------------|
A|-2---2---2-2-2-2---2-2---2-2-2-2---------------------|
E|-----------------------------------------------------|
   ↓   ↓   ↓ ↑ ↓ ↑   ↑ ↓   ↓ ↑ ↓ ↑


Don't waste your time on me 
You're already
The voice inside my head

Don't waste your time on me
You're already
The voice inside my head


[Ponte]

E|-----------------------------------------------------|
B|-----------------------------------------------------|
G|-4-4-4/8-----8-8-------------------------------------|
D|-----------------------------------------------------|
A|-2-2-2/6-----6-6-------------------------------------|
E|-----------------------------------------------------|

E|-----------------------------------------------------|
B|-----------------------------------------------------|
G|-4-4-4/8-----8-8\4-----------------------------------|
D|-----------------------------------------------------|
A|-2-2-2/6-----6-6\2-----------------------------------|
E|-----------------------------------------------------|

E|-----------------------------------------------------|
B|-----------------------------------------------------|
G|-4-4-4/8-----8-8-------------------------------------|
D|-----------------------------------------------------|
A|-2-2-2/6-----6-6-------------------------------------|
E|-----------------------------------------------------|

E|-----------------------------------------------------|
B|-----------------------------------------------------|
G|-4-4-4/8-----8-8-------------------------------------|
D|-----------------------------------------------------|
A|-2-2-2/6-----6-6-------------------------------------|
E|-----------------------------------------------------|

E|-----------------------------------------------------|
B|-----------------------------------------------------|
G|-4-4-4/8-----8-8-------------------------------------|
D|-----------------------------------------------------|
A|-2-2-2/6-----6-6-------------------------------------|
E|-----------------------------------------------------|

E|-----------------------------------------------------|
B|-----------------------------------------------------|
G|-4-4-4/8-----8-8\4-----------------------------------|
D|-----------------------------------------------------|
A|-2-2-2/6-----6-6\2-----------------------------------|
E|-----------------------------------------------------|

E|-----------------------------------------------------|
B|-----------------------------------------------------|
G|-4-4-4/8-----8-8-------------------------------------|
D|-----------------------------------------------------|
A|-2-2-2/6-----6-6-------------------------------------|
E|-----------------------------------------------------|

E|-----------------------------------------------------|
B|-----------------------------------------------------|
G|-4-4-4/8-----8-8-------------------------------------|
D|-----------------------------------------------------|
A|-2-2-2/6-----6-6-------------------------------------|
E|-----------------------------------------------------|


[Refrão Final]

(Guitarra – até o final)
E|-----------------------------------------------------|
B|-----------------------------------------------------|
G|-4---4---4-4-4-6---6-6---6-6-6-6---------------------|
D|-----------------------------------------------------|
A|-2---2---2-2-2-4---4-4---4-4-4-4---------------------|
E|-----------------------------------------------------|
   ↓   ↓   ↓ ↑ ↓ ↑   ↑ ↓   ↓ ↑ ↓ ↑


E|-----------------------------------------------------|
B|-----------------------------------------------------|
G|-8---8---8-8-8-11---11-11---11-11-11-11--------------|
D|-----------------------------------------------------|
A|-6---6---6-6-6--9----9--9----9--9--9--9--------------|
E|-----------------------------------------------------|
   ↓   ↓   ↓ ↑ ↓  ↑    ↑  ↓    ↓  ↑  ↓  ↑

 
E|-----------------------------------------------------|
B|-----------------------------------------------------|
G|-----------------------------------------------------|
D|-6---6---6-6-6-8---8-8---8-8-8-8---------------------|
A|-----------------------------------------------------|
E|-4---4---4-4-4-6---6-6---6-6-6-6---------------------|
   ↓   ↓   ↓ ↑ ↓ ↑   ↑ ↓   ↓ ↑ ↓ ↑


E|-----------------------------------------------------|
B|-----------------------------------------------------|
G|-4---4---4-4-4-4---4-4---4-4-4-4---------------------|
D|-----------------------------------------------------|
A|-2---2---2-2-2-2---2-2---2-2-2-2---------------------|
E|-----------------------------------------------------|
   ↓   ↓   ↓ ↑ ↓ ↑   ↑ ↓   ↓ ↑ ↓ ↑


Don't waste your time on me
You're already
The voice inside my head

Don't waste your time on me
You're already
The voice inside my head

Don't waste your time on me
You're already
The voice inside my head

Don't waste your time on me
You're already
The voice inside my head

Clipes