busca

Kings of the Weekend

blink-182

Tom: G
G5
Can you read my thoughts
G5                        E5
I'm not sure what I said
               C5                 D5
I feel dumb and long night coming
G5
Did you steal my prayers
G5                  E5
I don't where I was
                C5            D5
I feel numb and all or nothing  (all or nothing)

[Riff de Guitarra 2ª parte do Verso]


E|--------------7-------10-8-7---|
B|---8---10-8------8----------8--|
G|-7---7------7------7-----------|
D|-------------------------------|  2x
A|-------------------------------|
E|-------------------------------|

[Refrão]

G5
It's Friday night let's lose our minds in a downward spiral
            C5
Here weeeee go
                     G5
Because we got no control
G5
Friday nights always save my life
                                       C5
From the worst of times we eeee-veeer had
                         G5
Thank God for punk rock bands
E5            C5               G5
Until Monday morning strikes again
E5          C5
We are the kings of the weekend


[Guitarra 2 Refrão]
 

E|----------------------|
B|----------------------|
G|-12---------12-14-12--|
D|-x----------x--x--x---|
A|-10---------10/12\10--|
E|----------------------|


[Interlúdio]

  B5 C5 B5  G5 - 2X

E|--------------------------|
B|--------------------------|
G|--------------------------|
D|-4/5\4--------4/5\4-------|
A|-2/3\2--5-5---2/3\2--5-5--|
E|--------3-3----------3-3--|


[Verso 2] = Palm Mute


G5
I can feel my head falling off my neck

E5              C5            D5
I need something to keep going

G5
So just take my hand only second's left

E5                 C5                 D5
The clock's running our time's coming


[Riff de Guitarra 2ª parte do Verso]


E|-7-7-7-7-7-7-7-7-8-7-|--10-10-10-10-10-10-10-10-10--|---------------|
B|-8-8-8-8-8-8-8-8-8-8-|--8--8--8--8--8--8--8--8--8---|-8-8-8-8-8-8-8-|
G|---------------------|------------------------------|-7-7-7-7-7-7-7-|
D|----( 2x )-----------|------------------------------|---------------|  
A|---------------------|------------------------------|---------------|
E|---------------------|------------------------------|---------------|


[Refrão]

G5
It's Friday night let's lose our minds in a downward spiral
            C5
Here weeeee go
                     G5
Because we got no control
G5
Friday nights always save my life
                                       C5
From the worst of times we eeee-veeer had
                         G5
Thank God for punk rock bands
E5            C5               G5
Until Monday morning strikes again
E5          C5
We are the kings of the weekend


[Guitarra 2 Refrão]
 
E|----------------------|
B|----------------------|
G|-12---------12-14-12--|
D|-x----------x--x--x---|
A|-10---------10/12\10--|
E|----------------------|


[Interlúdio] 2x

 B5 C5 B5  G5 - 4X

E|--------------------------|
B|--------------------------|
G|--------------------------|
D|-4/5\4--------4/5\4-------|
A|-2/3\2--5-5---2/3\2--5-5--|
E|--------3-3----------3-3--|


  E5                          C5

E|-7h8p7------7h8p7---------|-7h8p7------7h8p7---------|
B|-------8-8--------8-8-----|-------8-8--------8-8-----|
G|--------------------------|--------------------------|
D|--------------------------|--------------------------|
A|--------------------------|--------------------------|
E|--------------------------|--------------------------|


[Refrão]

G5
It's Friday night let's lose our minds in a downward spiral
            C5
Here weeeee go
                     G5
Because we got no control

G5
Friday nights always save my life
                                       C5
From the worst of times we eeee-veeer had
                         G5
Thank God for punk rock bands

[Riff de Guitarra]
 

E|-7-7-7-8-8-8-10-10-10-------------7-7--------------------|
B|-----------------------8-8-10-10------10-10-8-8----------|
G|---------------------------------------------------------|
D|---------------------------------------------------------|
A|---------------------------------------------------------|
E|---------------------------------------------------------|

E|-7-7-8-8-10-10-7-7-8-8-10-10-----------------------------|
B|------------------------------8-8-8-8--------------------|
G|---------------------------------------------------------|
D|---------------------------------------------------------|
A|---------------------------------------------------------|
E|---------------------------------------------------------|

E|-7-7-7-8-8-8-10-10-10-------------7-7--------------------|
B|-----------------------8-8-10-10------10-10-8-8----------|
G|---------------------------------------------------------|
D|---------------------------------------------------------|
A|---------------------------------------------------------|
E|---------------------------------------------------------|

E|-7-7-8-8-10-10-7-7-8-8-10-10-----------------------------|
B|------------------------------8-8-8-8--------------------|
G|---------------------------------------------------------|
D|---------------------------------------------------------|
A|---------------------------------------------------------|
E|---------------------------------------------------------|


E5            C5               G5
Until Monday morning strikes again
E5          C5
We are the kings of the weekend



[Final]

 B5 C5 B5  G5 - 2x

E|--------------------------|
B|--------------------------|
G|--------------------------|
D|-4/5\4--------4/5\4-------|
A|-2/3\2--5-5---2/3\2--5-5--|
E|--------3-3----------3-3--|

Clipes