Kings of the Weekend

Blink-182

B5
134
X244XX
C5
134
X355XX
D5
134
X577XX
E5
12
022XXX
G5
134
355XXX
Tom: G
G5
Can you read my thoughts
G5                        E5
I'm not sure what I said
               C5                 D5
I feel dumb and long night coming
G5
Did you steal my prayers
G5                  E5
I don't where I was
                C5            D5
I feel numb and all or nothing  (all or nothing)

[Riff de Guitarra 2ª parte do Verso]


#1t1##1t2#E|--------------7-------10-8-7---|
B|---8---10-8------8----------8--|
G|-7---7------7------7-----------|
D|-------------------------------|  2x
A|-------------------------------|
E|-------------------------------|#/1t2##/1t1#

[Refrão]

G5
It's Friday night let's lose our minds in a downward spiral
            C5
Here weeeee go
                     G5
Because we got no control
G5
Friday nights always save my life
                                       C5
From the worst of times we eeee-veeer had
                         G5
Thank God for punk rock bands
E5            C5               G5
Until Monday morning strikes again
E5          C5
We are the kings of the weekend


[Guitarra 2 Refrão]
 

#2t1##2t2#E|----------------------|
B|----------------------|
G|-12---------12-14-12--|
D|-x----------x--x--x---|
A|-10---------10/12\10--|
E|----------------------|#/2t2##/2t1#


[Interlúdio]

  B5 C5 B5  G5 - 2X

#3t1##3t2#E|--------------------------|
B|--------------------------|
G|--------------------------|
D|-4/5\4--------4/5\4-------|
A|-2/3\2--5-5---2/3\2--5-5--|
E|--------3-3----------3-3--|#/3t2##/3t1#


[Verso 2] = Palm Mute


G5
I can feel my head falling off my neck

E5              C5            D5
I need something to keep going

G5
So just take my hand only second's left

E5                 C5                 D5
The clock's running our time's coming


[Riff de Guitarra 2ª parte do Verso]


#4t1##4t2#E|-7-7-7-7-7-7-7-7-8-7-|--10-10-10-10-10-10-10-10-10--|---------------|
B|-8-8-8-8-8-8-8-8-8-8-|--8--8--8--8--8--8--8--8--8---|-8-8-8-8-8-8-8-|
G|---------------------|------------------------------|-7-7-7-7-7-7-7-|
D|----( 2x )-----------|------------------------------|---------------|  
A|---------------------|------------------------------|---------------|
E|---------------------|------------------------------|---------------|#/4t2##/4t1#


[Refrão]

G5
It's Friday night let's lose our minds in a downward spiral
            C5
Here weeeee go
                     G5
Because we got no control
G5
Friday nights always save my life
                                       C5
From the worst of times we eeee-veeer had
                         G5
Thank God for punk rock bands
E5            C5               G5
Until Monday morning strikes again
E5          C5
We are the kings of the weekend


[Guitarra 2 Refrão]
 
#5t1##5t2#E|----------------------|
B|----------------------|
G|-12---------12-14-12--|
D|-x----------x--x--x---|
A|-10---------10/12\10--|
E|----------------------|#/5t2##/5t1#


[Interlúdio] 2x

 B5 C5 B5  G5 - 4X

#6t1##6t2#E|--------------------------|
B|--------------------------|
G|--------------------------|
D|-4/5\4--------4/5\4-------|
A|-2/3\2--5-5---2/3\2--5-5--|
E|--------3-3----------3-3--|#/6t2##/6t1#


  E5                          C5

#7t1##7t2#E|-7h8p7------7h8p7---------|-7h8p7------7h8p7---------|
B|-------8-8--------8-8-----|-------8-8--------8-8-----|
G|--------------------------|--------------------------|
D|--------------------------|--------------------------|
A|--------------------------|--------------------------|
E|--------------------------|--------------------------|#/7t2##/7t1#


[Refrão]

G5
It's Friday night let's lose our minds in a downward spiral
            C5
Here weeeee go
                     G5
Because we got no control

G5
Friday nights always save my life
                                       C5
From the worst of times we eeee-veeer had
                         G5
Thank God for punk rock bands

[Riff de Guitarra]
 

#8t1##8t2#E|-7-7-7-8-8-8-10-10-10-------------7-7--------------------|
B|-----------------------8-8-10-10------10-10-8-8----------|
G|---------------------------------------------------------|
D|---------------------------------------------------------|
A|---------------------------------------------------------|
E|---------------------------------------------------------|#/8t2##/8t1#

#9t1##9t2#E|-7-7-8-8-10-10-7-7-8-8-10-10-----------------------------|
B|------------------------------8-8-8-8--------------------|
G|---------------------------------------------------------|
D|---------------------------------------------------------|
A|---------------------------------------------------------|
E|---------------------------------------------------------|#/9t2##/9t1#

#10t1##10t2#E|-7-7-7-8-8-8-10-10-10-------------7-7--------------------|
B|-----------------------8-8-10-10------10-10-8-8----------|
G|---------------------------------------------------------|
D|---------------------------------------------------------|
A|---------------------------------------------------------|
E|---------------------------------------------------------|#/10t2##/10t1#

#11t1##11t2#E|-7-7-8-8-10-10-7-7-8-8-10-10-----------------------------|
B|------------------------------8-8-8-8--------------------|
G|---------------------------------------------------------|
D|---------------------------------------------------------|
A|---------------------------------------------------------|
E|---------------------------------------------------------|#/11t2##/11t1#


E5            C5               G5
Until Monday morning strikes again
E5          C5
We are the kings of the weekend



[Final]

 B5 C5 B5  G5 - 2x

#12t1##12t2#E|--------------------------|
B|--------------------------|
G|--------------------------|
D|-4/5\4--------4/5\4-------|
A|-2/3\2--5-5---2/3\2--5-5--|
E|--------3-3----------3-3--|#/12t2##/12t1#
Composição: Mark Hoppus / Travis Barker / Matt SkibaColaboração e revisão: Renan Luiz