Life's So Boring

Blink-182

Tom: G
é uma instrumental que tah no demo do enema of the state

+ ou - assim

1º tem uma linha de baxo (um dia eu boto aki tirado no violão)
dpois entra a guitarra junto com a batera, fazendo esse riff
#1t1##1t2#e|----------------------------------------------------------------|
B|----------------------------------------------------------------|
G|----------------------------------------------------------------|
D|----5-----5---5---------5-----5---5-----------------------------|
A|------3-----3-------------3-----3-------------------------------|
E|--3-----3-------------3-----3-----------------------------------|#/1t2##/1t1#

#2t1#dai bota uma distorção
#2t2#e|----------------------|
B|----------------------|
G|----------------------|
D|--5~--7~--9~--10~-----|
A|--5~--7~--9~--10~-----|
E|--3~--5~--7~--8~------|#/2t2##/2t1#

daew

#3t1##3t2#e|----------------------|
B|----------------------|
G|------7---7-5-4-------|
D|----5---5-------------|
A|----------------------|
E|----------------------|#/3t2##/3t1#

by pkenuu182
Composição: Artie Kornfeld / Barker / Brian Wilson / Feldman / Feldmann / Hodges / Hoppus / Iil Aaron / J. P. Clark / Jan Berry / John Feldmann / John Lennon / Johnson / JP Clark / JRM / Mark Hoppus / Matt Malpass / Matt Skiba / Matt Skibba / Mott The Hopple / NOFX / Ono Yoko / Roger Christian / Sam Hollander / Skiba / Smrdeath / Stump / T. Hales / Thabiso Nkhereanye / The Cure / Tim Pagnotta / Tom / Tom DeLonge / Travis BarkerColaboração e revisão: Alencar Fardin