busca

Life's So Boring

blink-182

Tom: G
é uma instrumental que tah no demo do enema of the state

+ ou - assim

1º tem uma linha de baxo (um dia eu boto aki tirado no violão)
dpois entra a guitarra junto com a batera, fazendo esse riff
e|----------------------------------------------------------------|
B|----------------------------------------------------------------|
G|----------------------------------------------------------------|
D|----5-----5---5---------5-----5---5-----------------------------|
A|------3-----3-------------3-----3-------------------------------|
E|--3-----3-------------3-----3-----------------------------------|

dai bota uma distorção
e|----------------------|
B|----------------------|
G|----------------------|
D|--5~--7~--9~--10~-----|
A|--5~--7~--9~--10~-----|
E|--3~--5~--7~--8~------|

daew

e|----------------------|
B|----------------------|
G|------7---7-5-4-------|
D|----5---5-------------|
A|----------------------|
E|----------------------|

by pkenuu182

Clipes