busca

Los Angeles

Blink-182

Tom: E
[Intro]

E|---------------7---------|
B|----9--------------------|
G|--6---6------9-----------|
D|-----------7-------------|
A|-------------------------|
E|-------------------------|



[Verso]

   P.M..     P.M..
E|----------------------------------------|
B|----------------------------------------|
G|-6-6-------6-6-------6-6-6-6-6-6-6-6--4-|
D|-6-6-------6-6-------x-x-x-x-x-x-x-x--x-|
A|-4-4-------4-4-------4-4-4-4-4-4-4-4--2-|
E|----------------------------------------|

E|-------------------------------------------------------------|
B|-------------------------------------------------------------|
G|-6-6-6-6-6-6---8-8-8-8-8-8---9-9-9-9-9-9---11-11-11-11-11-11-|
D|-x-x-x-x-x-x---x-x-x-x-x-x---x-x-x-x-x-x---x--x--x--x--x--x--|
A|-4-4-4-4-4-4---6-6-6-6-6-6---7-7-7-7-7-7---9--9--9--9--9--9--|
E|-------------------------------------------------------------|

Day in day out
Up at 3AM
With the searchlights shining down
Day in day out
It's the blinding light
Underneath the dirt downtown

Listen to the sound as they bomb the sixth street bridge
Listen to the sound of the voices south of fifth


[Refrão]


E|-9----9----9---9-----------------|
B|---9----9---9----9---10---10--10-|
G|------------------------9---9----|
D|---------------------------------|
A|---------------------------------|
E|---------------------------------|

                                                                        P.M...
E|-----------------------------------------------------------------|  |-----|
B|-----------------------------------------------------------------|  |-----|
G|-6-6-6-6-6-6---8-8-8-8-9-9-9-9-------------------11-11-11-9-9-9--|  |-6-6-|
D|-x-x-x-x-x-x---x-x-x-x-x-x-x-x----7-7-7-7-7-7----x--x--x--x-x-x--|2x|-6-6-|
A|-4-4-4-4-4-4---6-6-6-6-7-7-7-7----0-0-0-0-0-0----9--9--9--7-7-7--|  |-4-4-|
E|-----------------------------------------------------------------|  |-----|


Los Angeles when will you save me
Los Angeles I'm never coming home



[Verso 2]


   P.M..     P.M..
E|-----------------------------------------------------|
B|-----------------------------------------------------|
G|-6-6-------6-6------9-9---9-9-9-9---9-9---9-9-9-9----|
D|-6-6-------6-6------x-x---x-x-x-x---x-x---x-x-x-x----|
A|-4-4-------4-4------7-7---7-7-7-7---7-7---7-7-7-7----|
E|-----------------------------------------------------|


E|-----------------------------------------------------|
B|-----------------------------------------------------|
G|-9-9---9-9-9-9---9-9---11-11-11-11-------------------|
D|-x-x---x-x-x-x---x-x---x--x--x--x--------------------|
A|-7-7---7-7-7-7---7-7---9--9--9--9--------------------|
E|-----------------------------------------------------|


E|----------------------------------|
B|----------------------------------|
G|-9-9---9-9-9-9---9-9---9-9-9-9----|
D|-x-x---x-x-x-x---x-x---x-x-x-x----|
A|-7-7---7-7-7-7---7-7---7-7-7-7----|
E|----------------------------------|


Come down
I've been awake for days
Knocked out
By the sound of the falling rain
Come down yeah we'll watch the sun just burn away the sky
Watch the city lights die out up on Mulholland Drive



[Refrão]

E|-----------------------------------------------------------------|  
B|-----------------------------------------------------------------|  
G|-6-6-6-6-6-6---8-8-8-8-9-9-9-9-------------------11-11-11-9-9-9--|  
D|-x-x-x-x-x-x---x-x-x-x-x-x-x-x----7-7-7-7-7-7----x--x--x--x-x-x--| 4X
A|-4-4-4-4-4-4---6-6-6-6-7-7-7-7----0-0-0-0-0-0----9--9--9--7-7-7--|  
E|-----------------------------------------------------------------|  


Los Angeles when will you save me
Los Angeles I'm never coming home


[Ponte]

Wake me when this war is over

E5 ..........................
Meet me where the skyline ends

E5       B5       F#5
Wake me when this war is over

E5      B5        F#5     A5
Meet me where the skyline ends

E5      B/D#     C#5     A5
Wake me when this war is over

E5      B5        F#5     A5
Meet me where the skyline ends



[Refrão]

   C#m     A
Los Angeles when will you save me
   C#m
Los Angeles when will you save me


E|-------------------------------------------------------------------------|  
B|-------------------------------------------------------------------------|  
G|---------6-6-6-6-6-6---8-8-8-8-9-9-9-9-------------------11-11-11-9-9-9--|  
D|-x-x-----x-x-x-x-x-x---x-x-x-x-x-x-x-x----7-7-7-7-7-7----x--x--x--x-x-x--| 6X
A|-x-x-----4-4-4-4-4-4---6-6-6-6-7-7-7-7----0-0-0-0-0-0----9--9--9--7-7-7--|  
E|-x-x---------------------------------------------------------------------|  


Los Angeles when will you save me
Los Angeles I'm never coming home


[Final]

C#5

Clipes