Los Angeles

Blink-182

A
123
X02220
A5
12
X022XX
B/D#
1234
X6X477
B5
134
X244XX
C#5
134
X466XX
C#m
234
X46654
E5
12
022XXX
F#5
134
244XXX
Tom: G
[Intro]

#1t1##1t2#E|---------------7---------|
B|----9--------------------|
G|--6---6------9-----------|
D|-----------7-------------|
A|-------------------------|
E|-------------------------|#/1t2##/1t1#



[Verso]

#2t1#   P.M..     P.M..
#2t2#E|----------------------------------------|
B|----------------------------------------|
G|-6-6-------6-6-------6-6-6-6-6-6-6-6--4-|
D|-6-6-------6-6-------x-x-x-x-x-x-x-x--x-|
A|-4-4-------4-4-------4-4-4-4-4-4-4-4--2-|
E|----------------------------------------|#/2t2##/2t1#

#3t1##3t2#E|-------------------------------------------------------------|
B|-------------------------------------------------------------|
G|-6-6-6-6-6-6---8-8-8-8-8-8---9-9-9-9-9-9---11-11-11-11-11-11-|
D|-x-x-x-x-x-x---x-x-x-x-x-x---x-x-x-x-x-x---x--x--x--x--x--x--|
A|-4-4-4-4-4-4---6-6-6-6-6-6---7-7-7-7-7-7---9--9--9--9--9--9--|
E|-------------------------------------------------------------|#/3t2##/3t1#

Day in day out
Up at 3AM
With the searchlights shining down
Day in day out
It's the blinding light
Underneath the dirt downtown

Listen to the sound as they bomb the sixth street bridge
Listen to the sound of the voices south of fifth


[Refrão]


#4t1##4t2#E|-9----9----9---9-----------------|
B|---9----9---9----9---10---10--10-|
G|------------------------9---9----|
D|---------------------------------|
A|---------------------------------|
E|---------------------------------|#/4t2##/4t1#

#5t1#                                                                        P.M...
#5t2#E|-----------------------------------------------------------------|  |-----|
B|-----------------------------------------------------------------|  |-----|
G|-6-6-6-6-6-6---8-8-8-8-9-9-9-9-------------------11-11-11-9-9-9--|  |-6-6-|
D|-x-x-x-x-x-x---x-x-x-x-x-x-x-x----7-7-7-7-7-7----x--x--x--x-x-x--|2x|-6-6-|
A|-4-4-4-4-4-4---6-6-6-6-7-7-7-7----0-0-0-0-0-0----9--9--9--7-7-7--|  |-4-4-|
E|-----------------------------------------------------------------|  |-----|#/5t2##/5t1#


Los Angeles when will you save me
Los Angeles I'm never coming home



[Verso 2]


#6t1#   P.M..     P.M..
#6t2#E|-----------------------------------------------------|
B|-----------------------------------------------------|
G|-6-6-------6-6------9-9---9-9-9-9---9-9---9-9-9-9----|
D|-6-6-------6-6------x-x---x-x-x-x---x-x---x-x-x-x----|
A|-4-4-------4-4------7-7---7-7-7-7---7-7---7-7-7-7----|
E|-----------------------------------------------------|#/6t2##/6t1#


#7t1##7t2#E|-----------------------------------------------------|
B|-----------------------------------------------------|
G|-9-9---9-9-9-9---9-9---11-11-11-11-------------------|
D|-x-x---x-x-x-x---x-x---x--x--x--x--------------------|
A|-7-7---7-7-7-7---7-7---9--9--9--9--------------------|
E|-----------------------------------------------------|#/7t2##/7t1#


#8t1##8t2#E|----------------------------------|
B|----------------------------------|
G|-9-9---9-9-9-9---9-9---9-9-9-9----|
D|-x-x---x-x-x-x---x-x---x-x-x-x----|
A|-7-7---7-7-7-7---7-7---7-7-7-7----|
E|----------------------------------|#/8t2##/8t1#


Come down
I've been awake for days
Knocked out
By the sound of the falling rain
Come down yeah we'll watch the sun just burn away the sky
Watch the city lights die out up on Mulholland Drive



[Refrão]

#9t1##9t2#E|-----------------------------------------------------------------|  
B|-----------------------------------------------------------------|  
G|-6-6-6-6-6-6---8-8-8-8-9-9-9-9-------------------11-11-11-9-9-9--|  
D|-x-x-x-x-x-x---x-x-x-x-x-x-x-x----7-7-7-7-7-7----x--x--x--x-x-x--| 4X
A|-4-4-4-4-4-4---6-6-6-6-7-7-7-7----0-0-0-0-0-0----9--9--9--7-7-7--|  
E|-----------------------------------------------------------------|  #/9t2##/9t1#


Los Angeles when will you save me
Los Angeles I'm never coming home


[Ponte]

Wake me when this war is over

E5 ..........................
Meet me where the skyline ends

E5       B5       F#5
Wake me when this war is over

E5      B5        F#5     A5
Meet me where the skyline ends

E5      B/D#     C#5     A5
Wake me when this war is over

E5      B5        F#5     A5
Meet me where the skyline ends



[Refrão]

   C#m     A
Los Angeles when will you save me
   C#m
Los Angeles when will you save me


#10t1##10t2#E|-------------------------------------------------------------------------|  
B|-------------------------------------------------------------------------|  
G|---------6-6-6-6-6-6---8-8-8-8-9-9-9-9-------------------11-11-11-9-9-9--|  
D|-x-x-----x-x-x-x-x-x---x-x-x-x-x-x-x-x----7-7-7-7-7-7----x--x--x--x-x-x--| 6X
A|-x-x-----4-4-4-4-4-4---6-6-6-6-7-7-7-7----0-0-0-0-0-0----9--9--9--7-7-7--|  
E|-x-x---------------------------------------------------------------------|  #/10t2##/10t1#


Los Angeles when will you save me
Los Angeles I'm never coming home


[Final]

C#5
Composição: Mark Hoppus / Travis Barker / Matt SkibaColaboração e revisão: Renan Luiz