busca

love is dangerous

blink-182

Intro / Verso:
G|--------------------------------------
D|--------------------------------------
A|---2---5------------------------------
E|-------------3------------------------

Refrão:
G|-44444444----77777777-----0(16x)------
D|-44444444----55555555-----------------
A|--------------------------------------
E|--------------------------------------

Ponte:
G|--------------------------------------
D|--------------------------------------
A|----5---0-----------5----0------------
E|-------------3----------------0---3---

Clipes