Marlboro Man

Blink-182

Tom: G
Obs.: antes entra a batera depois o baixo, dai entra guitarra limpa

A A D A E A D A  (faça todos em pestana e o D e o E na 10ª e 12ª casa respectivamente):)

#1t1##1t2#e|----------------------------------|  
B|----------------------------------|  
G|----------------------------------|  
D|----6--7--9--9-7----7--6---4--4-2-|2x depois repete mais 2x sem palm-mute
A|--x--x--x--x------x--x---x--x-----|  
E|----------------------------------|  #/1t2##/1t1#
p.m________________________________|


#2t1#verso
#2t2#e|------------------------------------|
B|------------------------------------|
G|--------7-7-9-9---------------------|
D|----7-7-7-7-9-9-7-------------------|
A|----7-7-5-5-7-7-7-------------------|
E|----5-5---------5-0-2-3-------------|#/2t2##/2t1#

#3t1#pré-refrão
#3t2#e|------------5------------5------------|
B|-----------5-5----------5-5-----------|
G|--7--9----5----9--7----5--------------|
D|--7--9-7-------9--7-7-----------------|
A|--5--7-7-------7--5-7-----------------|
E|-------5------------5-----------------|#/3t2##/3t1#

#4t1#refrão
#4t2#e|------------------------------------|
B|------------------------------------|
G|---9--------7-----------------------|
D|---9--7--4--7-----------------------|
A|---7--7--4--5-----------------------|
E|------5--2--------------------------|#/4t2##/4t1#

#5t1#solo(ñ ta nem perto de certo mas quebra um galho, da pra tira uma base e improvisa dai)
#5t2#e|--------------------------------------------------------------------------------------|
B|--------------------------------------------------------------------------------------|
G|--------------------------------------------------------------------------------------|
D|-10-10-12-10--10-9/10-10--7-7-7-7--11-11-11-14-13-11-10/12-12-10/12-13/14-10-12-13-14-|
A|--------------------------------------------------------------------------------------|
E|--------------------------------------------------------------------------------------|#/5t2##/5t1#

#6t1##6t2#e|-----------------------------------------------------------------------------------------|
B|-----------------------------------------------------------------------------------------|
G|-----------------------------------------------------------------------------------------|
D|-10-10-12-10--10-9/10-10--7-7-7-7--14-13-11-10-10-10-14-13-12-11/12-11/12-14-13-12-11-12-|
A|-----------------------------------------------------------------------------------------|
E|-----------------------------------------------------------------------------------------|#/6t2##/6t1#

é + ou - isso

essa musica eu tirei da versão do demo #2, naum do flyswatter(que tem uma diferençazinha no refrão)

flws
Composição: Colaboração e revisão: Alencar Fardin