busca

No Future

Blink-182

Tom: C
Intro:

E|--------------------------------------------------------------------|
B|--------------------------------------------------------------------|
G|-------0------0------0------0-------0-----0------0------0-----------|
D|--------------------------------------------------------------------|
A|--3-3----3-3--------------------------------------------------------|
E|----------------3-3----3-3-----1-1----1-1----1-1----1-1-------------|


Verso: ( mesmo riff da intro)

C5         G5
She said      
F5
tonight's a waste of time
A5           G5
The next day     
F5
the sun will always rise
      A5                        G5
Every day that you waste, every promise you break
F5
Slips beneath the floor
      A5
It's a permanent state
       G5
From a moment's mistake
    F5
But life's worth so much more


Refrão:

C5                           G5
You don't know a thing about it
A5                           G5
Hours lost from to dawn from dusk
         F5         A5    G5
And they don't care about you

No future

C5                             G5
Let the music seal your fate, yeah
A5                                G5
You can run, but life won't wait, yeah
     F5          A5    G5
They don't care about you
          C5
No future


Verso 2:

C5        G5
She said 
F5
that it's too late to try
A5      G5
Someday
F5
 I'll smile and say goodbye
      A5                         G5
Every night that you fight every demon in sight
F5
Sleeping on the floor
     A5
Wide awake from the dream
       G5
With a shake and a scream
F5
Hope for so much more


Refrão:

C5                           G5
You don't know a thing about it
A5                           G5
Hours lost from to dawn from dusk
         F5         A5    G5
And they don't care about you

No future

C5                             G5
Let the music seal your fate, yeah
A5                                G5
You can run, but life won't wait, yeah
     F5          A5    G5
They don't care about you
          C5
No future


NA NA NA NA NA: (MESMA BASE DO REFRÃO) 2X


Interlúdio:

   P.M..............................
E|---------------------------------------
B|---------------------------------------
G|-5-5-5-5-5---5-5-5-5-5---7-7-7-7-7-----
D|-7-7-7-7-7---3-3-3-3-3---5-5-5-5-5-----    2X
A|---------------------------------------
E|---------------------------------------


A5
Where did she go
F5                    G5
And what did she hope to find there
A5
Where did she go
F5                    G5
And what did she hope to find there
A5
Where did she go, did she go, did she go
F5               G5
Where did she go to find it
A5
Where did she go, did she go, did she go
F5               G5
Where did she go to find it


Refrão:

You don't know a thing about it
Hours lost from to dawn from dusk
       F5           A5    G5
And they don't care about you
No future

C5                             G5
Let the music seal your fate, yeah
A5                                G5
You can run, but life won't wait, yeah
     F5          A5    G5
They don't care about you
          
No future


NA NA NA NA NA: (MESMA BASE DO REFRÃO) 2X


Final: F5

Clipes