busca

No Heart To Speak Of

Blink-182

Tom: D
[Introdução]

   G5                                              A5
E|----------------------------------------------------------------|
B|----------------------------------------------------------------|
G|----------------------------------------------------------------|
D|-5-5-5-5-5-5-5-5-5-5-5-5-5-5-5-5-5-5-5-5-5-5-5-5-7-7-7-7-7-7-7-7|
A|-5-5-5-5-5-5-5-5-5-5-5-5-5-5-5-5-5-5-5-5-5-5-5-5-7-7-7-7-7-7-7-7|
E|-3-3-3-3-3-3-3-3-3-3-3-3-3-3-3-3-3-3-3-3-3-3-3-3-5-5-5-5-5-5-5-5|

   B5                                              A5
E|----------------------------------------------------------------|
B|----------------------------------------------------------------|
G|----------------------------------------------------------------|
D|-9-9-9-9-9-9-9-9-9-9-9-9-9-9-9-9-9-9-9-9-9-9-9-9-7-7-7-7-7-7-7-7|
A|-9-9-9-9-9-9-9-9-9-9-9-9-9-9-9-9-9-9-9-9-9-9-9-9-7-7-7-7-7-7-7-7|
E|-7-7-7-7-7-7-7-7-7-7-7-7-7-7-7-7-7-7-7-7-7-7-7-7-5-5-5-5-5-5-5-5|

[Primeira Parte]

E|----------------------------------------------------------------|
B|----------------------------------------------------------------|
G|---4---4---4---4---4---4---4---4---4-----6---6---6---6---6---6--|
D|-5---5---5---5---5---5---5---5---5-----7---7---7---7---7---7----|
A|----------------------------------------------------------------|
E|----------------------------------------------------------------|
                                                               (2x)
E|----------------------------------------------------------------|
B|----------------------------------------------------------------|
G|---7-----7-----7----7-----7-----7----7-----7-----7----6-----6---|
D|-9---9-9---9-9----9---9-9---9-9----9---9-9---9-9----7---7-7---7-|
A|----------------------------------------------------------------|
E|----------------------------------------------------------------|

G                              A
  Photographs of you are still haunting my halls
Bm                              A
  Still framed and blue you say nothing at all
G                  A
  Sacrifice myself leave me dead in the sun
Bm                                     A
  Put it on a shelf leave it there for everyone to see

[Pré-Refrão]

D|-x-x-x-x-x-x-x-x-----x-x-x-x-x-x-x-x-x--------------------------|
A|-x-x-x-x-x-x-x-x-----x-x-x-x-x-x-x-x-x--------------------------|
E|-3-3-3-3-3-3-3-3-----5-5-5-5-5-5-5-5-5--------------------------|
  P.M ............     .................

G
  Is that all you have
          A
  Is that all you have to say?

[Refrão]

G5
  Lying on the bedroom floor
                              A5
Hanging on the words that you said before
   B5            A5
No heart no heart to speak of
G5
  Dying on the bathroom floor
                             A5
Thinking of the life that we had before
   B5            A5
No heart no heart to speak of

[Segunda Parte]

E|----------------------------------------------------------------|
B|----------------------------------------------------------------|
G|---4---4---4---4---4---4---4---4---4-----6---6---6---6---6---6--|
D|-5---5---5---5---5---5---5---5---5-----7---7---7---7---7---7----|
A|----------------------------------------------------------------|
E|----------------------------------------------------------------|
                                                               (2x)
E|----------------------------------------------------------------|
B|----------------------------------------------------------------|
G|---7-----7-----7----7-----7-----7----7-----7-----7----6-----6---|
D|-9---9-9---9-9----9---9-9---9-9----9---9-9---9-9----7---7-7---7-|
A|----------------------------------------------------------------|
E|----------------------------------------------------------------|

G                                A
  Nothing left but scars clawed away of my heart
Bm                             A
  On a crumbling edge watch me falling apart
G                               A
  Feel the birds of prey circle over our home
Bm                                A
  Vultures in the ash separating skin from bone

[Pré-Refrão]

G
  Is that all you have
          A
  Is that all you have to say?

[Refrão]

G5
  Lying on the bedroom floor
                              A5
Hanging on the words that you said before
   B5            A5
No heart no heart to speak of
G5
  Dying on the bathroom floor
                             A5
Thinking of the life that we had before
   B5            A5
No heart no heart to speak of

[Ponte]

G                  A
  And I think one day
Bm
  And I think one day
      A
We'll both just fade away

E|----------------------------------------|
B|----------------------------------------|
G|----------------------------------------|
D|----------------------------------------|
A|-----5-------5-------5-------5-------5--|
E|-3-3-----3-3-----5-5-----7-7-----7-7----|

G
  And I think one day
      A
We'll pay for our mistakes
Bm
  And I think one day
    A
I'm gonna slip away

[Refrão]

G5
  Lying on the bedroom floor
                              A5
Hanging on the words that you said before
   B5            A5
No heart no heart to speak of
G5
  Dying on the bathroom floor
                             A5
Thinking of the life that we had before
   B5            A5
No heart no heart to speak of

[Final]

E|---------------------------------------------------|
B|---------------------------------------------------|
G|---------------------------------------------------|
D|----7-----5-----4-----4-------7-----5-----4--------|
A|-5-----5-----5-----5-------5-----5-----5-----5--7--|
E|---------------------------------------------------|

E|---------------------------------------------------|
B|---------------------------------------------------|
G|---------------------------------------------------|
D|----7-----5-----4-----4-------7-----5-----4--------|
A|-5-----5-----5-----5-------5-----5-----5-----5--7--|
E|---------------------------------------------------|

Clipes

Cifra Club Pro

Aproveite o Cifra Club com benefícios exclusivos e sem anúncios
Cifra Club Pro
Aproveite o Cifra Club com benefícios exclusivos e sem anúncios