No Heart To Speak Of

Blink-182

A
123
X02220
A5
12
X022XX
B5
134
X244XX
Bm
234
X24432
G
123
320003
G5
134
355XXX
Tom: G
[Introdução]

#1t1#   G5                                              A5
#1t2#E|----------------------------------------------------------------|
B|----------------------------------------------------------------|
G|----------------------------------------------------------------|
D|-5-5-5-5-5-5-5-5-5-5-5-5-5-5-5-5-5-5-5-5-5-5-5-5-7-7-7-7-7-7-7-7|
A|-5-5-5-5-5-5-5-5-5-5-5-5-5-5-5-5-5-5-5-5-5-5-5-5-7-7-7-7-7-7-7-7|
E|-3-3-3-3-3-3-3-3-3-3-3-3-3-3-3-3-3-3-3-3-3-3-3-3-5-5-5-5-5-5-5-5|#/1t2##/1t1#

#2t1#   B5                                              A5
#2t2#E|----------------------------------------------------------------|
B|----------------------------------------------------------------|
G|----------------------------------------------------------------|
D|-9-9-9-9-9-9-9-9-9-9-9-9-9-9-9-9-9-9-9-9-9-9-9-9-7-7-7-7-7-7-7-7|
A|-9-9-9-9-9-9-9-9-9-9-9-9-9-9-9-9-9-9-9-9-9-9-9-9-7-7-7-7-7-7-7-7|
E|-7-7-7-7-7-7-7-7-7-7-7-7-7-7-7-7-7-7-7-7-7-7-7-7-5-5-5-5-5-5-5-5|#/2t2##/2t1#

[Primeira Parte]

#3t1##3t2#E|----------------------------------------------------------------|
B|----------------------------------------------------------------|
G|---4---4---4---4---4---4---4---4---4-----6---6---6---6---6---6--|
D|-5---5---5---5---5---5---5---5---5-----7---7---7---7---7---7----|
A|----------------------------------------------------------------|
E|----------------------------------------------------------------|
                                                               (2x)#/3t2##/3t1#
#4t1##4t2#E|----------------------------------------------------------------|
B|----------------------------------------------------------------|
G|---7-----7-----7----7-----7-----7----7-----7-----7----6-----6---|
D|-9---9-9---9-9----9---9-9---9-9----9---9-9---9-9----7---7-7---7-|
A|----------------------------------------------------------------|
E|----------------------------------------------------------------|#/4t2##/4t1#

G                              A
  Photographs of you are still haunting my halls
Bm                              A
  Still framed and blue you say nothing at all
G                  A
  Sacrifice myself leave me dead in the sun
Bm                                     A
  Put it on a shelf leave it there for everyone to see

[Pré-Refrão]

#5t1##5t2#D|-x-x-x-x-x-x-x-x-----x-x-x-x-x-x-x-x-x--------------------------|
A|-x-x-x-x-x-x-x-x-----x-x-x-x-x-x-x-x-x--------------------------|
E|-3-3-3-3-3-3-3-3-----5-5-5-5-5-5-5-5-5--------------------------|
  P.M ............     .................#/5t2##/5t1#

G
  Is that all you have
          A
  Is that all you have to say?

[Refrão]

G5
  Lying on the bedroom floor
                              A5
Hanging on the words that you said before
   B5            A5
No heart no heart to speak of
G5
  Dying on the bathroom floor
                             A5
Thinking of the life that we had before
   B5            A5
No heart no heart to speak of

[Segunda Parte]

#6t1##6t2#E|----------------------------------------------------------------|
B|----------------------------------------------------------------|
G|---4---4---4---4---4---4---4---4---4-----6---6---6---6---6---6--|
D|-5---5---5---5---5---5---5---5---5-----7---7---7---7---7---7----|
A|----------------------------------------------------------------|
E|----------------------------------------------------------------|
                                                               (2x)#/6t2##/6t1#
#7t1##7t2#E|----------------------------------------------------------------|
B|----------------------------------------------------------------|
G|---7-----7-----7----7-----7-----7----7-----7-----7----6-----6---|
D|-9---9-9---9-9----9---9-9---9-9----9---9-9---9-9----7---7-7---7-|
A|----------------------------------------------------------------|
E|----------------------------------------------------------------|#/7t2##/7t1#

G                                A
  Nothing left but scars clawed away of my heart
Bm                             A
  On a crumbling edge watch me falling apart
G                               A
  Feel the birds of prey circle over our home
Bm                                A
  Vultures in the ash separating skin from bone

[Pré-Refrão]

G
  Is that all you have
          A
  Is that all you have to say?

[Refrão]

G5
  Lying on the bedroom floor
                              A5
Hanging on the words that you said before
   B5            A5
No heart no heart to speak of
G5
  Dying on the bathroom floor
                             A5
Thinking of the life that we had before
   B5            A5
No heart no heart to speak of

[Ponte]

G                  A
  And I think one day
Bm
  And I think one day
      A
We'll both just fade away

#8t1##8t2#E|----------------------------------------|
B|----------------------------------------|
G|----------------------------------------|
D|----------------------------------------|
A|-----5-------5-------5-------5-------5--|
E|-3-3-----3-3-----5-5-----7-7-----7-7----|#/8t2##/8t1#

G
  And I think one day
      A
We'll pay for our mistakes
Bm
  And I think one day
    A
I'm gonna slip away

[Refrão]

G5
  Lying on the bedroom floor
                              A5
Hanging on the words that you said before
   B5            A5
No heart no heart to speak of
G5
  Dying on the bathroom floor
                             A5
Thinking of the life that we had before
   B5            A5
No heart no heart to speak of

[Final]

#9t1##9t2#E|---------------------------------------------------|
B|---------------------------------------------------|
G|---------------------------------------------------|
D|----7-----5-----4-----4-------7-----5-----4--------|
A|-5-----5-----5-----5-------5-----5-----5-----5--7--|
E|---------------------------------------------------|#/9t2##/9t1#

#10t1##10t2#E|---------------------------------------------------|
B|---------------------------------------------------|
G|---------------------------------------------------|
D|----7-----5-----4-----4-------7-----5-----4--------|
A|-5-----5-----5-----5-------5-----5-----5-----5--7--|
E|---------------------------------------------------|#/10t2##/10t1#
Composição: Mark Hoppus / Travis Barker / Matt SkibbaColaboração e revisão: Renan Luiz