busca

Not Now

Blink-182

Tom: D
[Intro] 

E|----------------------------------------------------|
B|----------------------------------------------------|
G|--11-11-11-11-11/-7-7-7-7--7-7/9-9/11-11/7--9/11----| (4x)
D|--x--x--x--x--x-/-x-x-x-x--x-x/x-x/x--x-/x--x/x-----|
A|--9--9--9--9--9-/-5-5-5-5--5-5/7-7/9--9-/5--7/9-----|
E|----------------------------------------------------|

[Riff 1] 

   B5      D5      A5          G5          D/F#
E|-----------------------------------------------------|
B|-----------------------------------------------------|
G|-4-4-4---7-7-7---------------------------------------| (4x)
D|-4-4-4---7-7-7---7-7-7-7-7---5-5-5-5-5---4-4-4-4-4---|
A|-2-2-2---5-5-5---7-7-7-7-7---5-5-5-5-5---5-5-5-5-5---|
E|-----------------5-5-5-5-5---3-3-3-3-3---2-2-2-2-2---|

[Primeira Parte]

    D     Em   D/F#   G
E|----------------------------------------|
B|----------------------------------------|
G|--7~~~--9~~~--11~~--12~~~---------------|
D|--x-----x-----x-----x-------------------|
A|--5~~~--7~~~--9~~~--10~~~---------------|
E|----------------------------------------|

D        Em
Come here please hold my hand for now 
D/F#   G
Help me I'm scared please show me how 
   D
To fight this 
Em
  God has a master 
         D/F#
Plan and I guess
G
  I am in his demand 

     D5           E5           D/F#         G5
E|------------------------------------------------------|
B|------------------------------------------------------|
G|---7~-x-x-x-x---9~-x-x-x-x----------------------------|
D|---7~-x-x-x-x---9~-x-x-x-x---4~-x-x-x-x---5~-x-x-x-x--|
A|---5~-5-5-5-5---7~-7-7-7-7---5~-x-x-x-x---5~-x-x-x-x--|
E|-----------------------------2~-2-2-2-2---3~-3-3-3-3--|
 P.M    . . . .      . . . .      . . . .      . . . .

       D5
Please save me 
E5
  This time I cannot run
    D/F#     G5
And I'll see You when this is done
    D5        E5
And now I Have come to realize 
     D/F#
That you are the
G5
  One who's left behind

[Refrão ]

    D           A/C#        Bm          A           G5          
E|-----------------------------------------------------|
B|-----------------------------------------------------|
G|--7-7-7-7-7---7-7-7-7-7---7-7-7-7-7---7-7-7-7-7------|
D|--x-x-x-x-x---x-x-x-x-x---7-7-7-7-7---7-7-7-7-7---5--|
A|--5-5-5-5-5---4-4-4-4-4---x-x-x-x-x---x-x-x-x-x---5--|
E|--------------------------7-7-7-7-7---5-5-5-5-5---3--|

        D             A/C#
Please stay until I'm gone 
              Bm
I'm here hold on 
          A          G5
To me I'm right here waiting 

[Riff 1] 

   B5      D5      A5          G5          D/F#
E|-----------------------------------------------------|
B|-----------------------------------------------------|
G|-4-4-4---7-7-7---------------------------------------| (2x)
D|-4-4-4---7-7-7---7-7-7-7-7---5-5-5-5-5---4-4-4-4-4---|
A|-2-2-2---5-5-5---7-7-7-7-7---5-5-5-5-5---5-5-5-5-5---|
E|-----------------5-5-5-5-5---3-3-3-3-3---2-2-2-2-2---|

[Segunda Parte]

    D     Em   D/F#   G
E|----------------------------------------|
B|----------------------------------------|
G|--7~~~--9~~~--11~~--12~~~---------------|
D|--x-----x-----x-----x-------------------|
A|--5~~~--7~~~--9~~~--10~~~---------------|
E|----------------------------------------|

D        Em
I see The light it feels
         D/F#
Good And I'll come
G
  Back soon just like
               D
You would It's useless
Em
  My name has made the list
    D/F#  G
And I wish I gave you one last kiss 

[Refrão]

    D          A/C#        Bm          A           G          
E|----------------------------------------------------------|
B|----------------------------------------------------------|
G|-7-7-7-7-7---6-6-6-6-6---7-7-7-7-7---7-7-7-7-7---7-7-7-7--|
D|-x-x-x-x-x---7-7-7-7-7---7-7-7-7-7---7-7-7-7-7---0-0-0-0--|
A|-5-5-5-5-5---4-4-4-4-4---x-x-x-x-x---x-x-x-x-x---x-x-x-x--|
E|-------------------------7-7-7-7-7---5-5-5-5-5---3-3-3-3--|

        D             A/C#
Please stay until I'm gone 
              Bm
I'm here hold on 
          A          G
To me I'm right here waiting 
    D
And take my one 
     A/C#
Last breath 
             Bm
And don't forget
               A
That I will be right
     G
Here waiting

[Ponte] 

E|---------------------------------------------|
B|---------------------------------------------|
G|--111111111-/-7-7-7-7--7-7/9-9/1111/7--9/11--| (4x)
D|--x-x-x-x-x-/-x-x-x-x--x-x/x-x/x-x-/x--x/x---|
A|--9-9-9-9-9-/-5-5-5-5--5-5/7-7/9-9-/5--7/9---|
E|---------------------------------------------|

[Refrão] 

    D          A/C#        Bm          A           G          
E|----------------------------------------------------------|
B|----------------------------------------------------------|
G|-7-7-7-7-7---6-6-6-6-6---7-7-7-7-7---7-7-7-7-7---7-7-7-7--| (2x)
D|-x-x-x-x-x---7-7-7-7-7---7-7-7-7-7---7-7-7-7-7---0-0-0-0--|
A|-5-5-5-5-5---4-4-4-4-4---x-x-x-x-x---x-x-x-x-x---x-x-x-x--|
E|-------------------------7-7-7-7-7---5-5-5-5-5---3-3-3-3--|

        D             A/C#
Please stay until I'm gone 
              Bm
I'm here hold on 
          A          G
To me I'm right here waiting 
    D
And take my one 
     A/C#
Last breath 
             Bm
And don't forget
               A
That I will be right
     G
Here waiting

[Riff 1] 

   B5      D5      A5          G5          D/F#
E|-----------------------------------------------------|
B|-----------------------------------------------------|
G|-4-4-4---7-7-7---------------------------------------|
D|-4-4-4---7-7-7---7-7-7-7-7---5-5-5-5-5---4-4-4-4-4---|
A|-2-2-2---5-5-5---7-7-7-7-7---5-5-5-5-5---5-5-5-5-5---|
E|-----------------5-5-5-5-5---3-3-3-3-3---2-2-2-2-2---|

[Final]
 
    B5  D5  A5
E|-----------|
B|-----------|
G|--4--7-----|
D|--4--7--7--|
A|--2--5--7--|
E|--------5--|

Clipes