busca

Not Now

blink-182

Tom: D
(introdução)
E|------------------------------------|
B|------------------------------------|
G|-11-11-11-7-7-7777-77-9-11-7-7-9/11-|
D|-x--x--x--x-x-xxxx-xx-x-x--x-x-x-x--|
A|-9--9--9--5-5-5555-55-7-9--5-5-7/9--|
E|------------------------------------| (4x)


Segunda parte:
E|--------------------------------------|
B|--------------------------------------|
G|-----777------------------------------|
D|-999-777-7777777777-55555555-44444444-|
A|-999-555-7777777777-55555555-55555555-|
E|-777-----5555555555-33333333-22222222-| (4x)



(verso - Tocar de vagar)


Come here, please hold my hand for now
Help me, I'm scared please show me how
To fight this, God has a master plan
And I guess, I am in his demand
E|------------|
B|------------|
G|-11-9-11-12-|
D|-x--x-x--x--|
A|-9--7-9--10-|
E|------------| (2x)


Please save me, this time I cannot run
And I'll see, you when this is done
And now I, have come to realize
That you are, the one who's left behind

E|---------------------|
B|---------------------|
G|-7777-7777-7777-7777-|
D|-7777-7777-7777-7777-|
A|-5555-4444-xxxx-xxxx-|
E|------5555-7777-5555-|

(Refrão)
Please stay, until I'm gone
I'm here, hold on, to me
I'm right here, waiting
--
Apenas bateria no refrão. Após o refrão, tocar o a segunda parte da introdução:

(intro)
E|--------------------------------------|
B|--------------------------------------|
G|-----777------------------------------|
D|-999-777-7777777777-55555555-44444444-|
A|-999-555-7777777777-55555555-55555555-|
E|-777-----5555555555-33333333-22222222-| (2x)

(verso - tocar de vagar)

I see, the light it feels good
And I'll come, back soon just like you would
It's useless, my name has made the list
And I wish, I gave you one last kiss

E|------------|
B|------------|
G|-11-9-11-12-|
D|-x--x-x--x--|
A|-9--7-9--10-|
E|------------| (2x)

(verso - tocar rápido Cima-Baixo-Cima)

Please stay, until I'm gone
I'm here, hold on, to me
I'm right here, waiting
And take, my one last breath
And don't forget
That I will be right here, waiting

E|------------|
B|------------|
G|-11-9-11-12-|
D|-x--x-x--x--|
A|-9--7-9--10-|
E|------------| (2x)


Esperar o baixo começar e depois tocar:

(ponte)
E|------------------------------------|
B|------------------------------------|
G|-11-11-11-7-7-7777-77-9-11-7-7-9/11-|
D|-x--x--x--x-x-xxxx-xx-x-x--x-x-x-x--|
A|-9--9--9--5-5-5555-55-7-9--5-5-7/9--|
E|------------------------------------| (4x)




(refrão)

Please stay, until I'm gone
I'm here, hold on, to me
I'm right here, waiting
And take, my one last breath
And don't forget
That I will be right here, waiting
E|---------------------|
B|---------------------|
G|-7777-7777-7777-7777-|
D|-7777-7777-7777-7777-|
A|-5555-4444-xxxx-xxxx-|
E|------5555-7777-5555-| (4x)

(Finalizando)
E|--------------------------------------|
B|--------------------------------------|
G|-----777------------------------------|
D|-999-777-7777777777-55555555-44444444-|
A|-999-555-7777777777-55555555-55555555-|
E|-777-----5555555555-33333333-22222222-| (4x)

E|-----------|
B|-----------|
G|-----7-----|
D|-9---7---7-|
A|-9---5---7-|
E|-7-------5-|

Clipes